  0
SECTION
  2
HEADER
  9
$ACADVER
  1
AC1015
  9
$ACADMAINTVER
 70
               6
  9
$DWGCODEPAGE
  3
ANSI_932
  9
$INSBASE
 10
0.0
 20
0.0
 30
0.0
  9
$EXTMIN
 10
-16475.23829397079
 20
-11661.285530118523
 30
0.0
  9
$EXTMAX
 10
16201.834990806179
 20
11200.0
 30
0.0
  9
$LIMMIN
 10
0.0
 20
0.0
  9
$LIMMAX
 10
0.0
 20
0.0
  9
$ORTHOMODE
 70
               0
  9
$REGENMODE
 70
               1
  9
$FILLMODE
 70
               1
  9
$QTEXTMODE
 70
               0
  9
$MIRRTEXT
 70
               1
  9
$LTSCALE
 40
508.0
  9
$ATTMODE
 70
               1
  9
$TEXTSIZE
 40
0.2
  9
$TRACEWID
 40
1.0
  9
$TEXTSTYLE
  7
Standard
  9
$CLAYER
  8
タイトル
  9
$CELTYPE
  6
Continuous
  9
$CECOLOR
 62
             256
  9
$CELTSCALE
 40
1.0
  9
$DISPSILH
 70
               0
  9
$DIMSCALE
 40
1.0
  9
$DIMASZ
 40
0.18
  9
$DIMEXO
 40
0.0625
  9
$DIMDLI
 40
0.38
  9
$DIMRND
 40
0.0
  9
$DIMDLE
 40
0.0
  9
$DIMEXE
 40
0.18
  9
$DIMTP
 40
0.0
  9
$DIMTM
 40
0.0
  9
$DIMTXT
 40
0.18
  9
$DIMCEN
 40
0.09
  9
$DIMTSZ
 40
0.0
  9
$DIMTOL
 70
               0
  9
$DIMLIM
 70
               0
  9
$DIMTIH
 70
               1
  9
$DIMTOH
 70
               1
  9
$DIMSE1
 70
               0
  9
$DIMSE2
 70
               0
  9
$DIMTAD
 70
               0
  9
$DIMZIN
 70
               0
  9
$DIMBLK
  1

  9
$DIMASO
 70
               1
  9
$DIMSHO
 70
               1
  9
$DIMPOST
  1

  9
$DIMAPOST
  1

  9
$DIMALT
 70
               0
  9
$DIMALTD
 70
               2
  9
$DIMALTF
 40
25.399999999999999
  9
$DIMLFAC
 40
1.0
  9
$DIMTOFL
 70
               0
  9
$DIMTVP
 40
0.0
  9
$DIMTIX
 70
               0
  9
$DIMSOXD
 70
               0
  9
$DIMSAH
 70
               0
  9
$DIMBLK1
  1

  9
$DIMBLK2
  1

  9
$DIMSTYLE
  2
Standard
  9
$DIMCLRD
 70
               0
  9
$DIMCLRE
 70
               0
  9
$DIMCLRT
 70
               0
  9
$DIMTFAC
 40
1.0
  9
$DIMGAP
 40
0.09
  9
$DIMJUST
 70
               0
  9
$DIMSD1
 70
               0
  9
$DIMSD2
 70
               0
  9
$DIMTOLJ
 70
               1
  9
$DIMTZIN
 70
               0
  9
$DIMALTZ
 70
               0
  9
$DIMALTTZ
 70
               0
  9
$DIMUPT
 70
               0
  9
$DIMDEC
 70
               4
  9
$DIMTDEC
 70
               4
  9
$DIMALTU
 70
               2
  9
$DIMALTTD
 70
               2
  9
$DIMTXSTY
  7
Standard
  9
$DIMAUNIT
 70
               0
  9
$DIMADEC
 70
               0
  9
$DIMALTRND
 40
0.0
  9
$DIMAZIN
 70
               0
  9
$DIMDSEP
 70
               0
  9
$DIMATFIT
 70
               3
  9
$DIMFRAC
 70
               0
  9
$DIMLDRBLK
  1

  9
$DIMLUNIT
 70
               2
  9
$DIMLWD
 70
               0
  9
$DIMLWE
 70
               0
  9
$DIMTMOVE
 70
               0
  9
$LUNITS
 70
               2
  9
$LUPREC
 70
               4
  9
$SKETCHINC
 40
0.1
  9
$FILLETRAD
 40
0.0
  9
$AUNITS
 70
               0
  9
$AUPREC
 70
               0
  9
$MENU
  1
acad
  9
$ELEVATION
 40
0.0
  9
$PELEVATION
 40
0.0
  9
$THICKNESS
 40
0.0
  9
$LIMCHECK
 70
               0
  9
$CHAMFERA
 40
0.0
  9
$CHAMFERB
 40
0.0
  9
$CHAMFERC
 40
0.0
  9
$CHAMFERD
 40
0.0
  9
$SKPOLY
 70
               0
  9
$TDCREATE
 40
2456104.796354167
  9
$TDUCREATE
 40
0.000000000
  9
$TDUPDATE
 40
2456104.796354167
  9
$TDUUPDATE
 40
0.000000000
  9
$TDINDWG
 40
0.0000000000
  9
$TDUSRTIMER
 40
0.0000000000
  9
$USRTIMER
 70
               1
  9
$ANGBASE
 50
0.0
  9
$ANGDIR
 70
               0
  9
$PDMODE
 70
               1
  9
$PDSIZE
 40
-2.0
  9
$PLINEWID
 40
0.0
  9
$SPLFRAME
 70
               0
  9
$SPLINETYPE
 70
               6
  9
$SPLINESEGS
 70
               8
  9
$HANDSEED
  5
162
  9
$SURFTAB1
 70
               6
  9
$SURFTAB2
 70
               6
  9
$SURFTYPE
 70
               6
  9
$SURFU
 70
               6
  9
$SURFV
 70
               6
  9
$UCSBASE
  2

  9
$UCSNAME
  2

  9
$UCSORG
 10
0.0
 20
0.0
 30
0.0
  9
$UCSXDIR
 10
1.0
 20
0.0
 30
0.0
  9
$UCSYDIR
 10
0.0
 20
1.0
 30
0.0
  9
$UCSORTHOREF
  2

  9
$UCSORTHOVIEW
 70
               0
  9
$UCSORGTOP
 10
0.0
 20
0.0
 30
0.0
  9
$UCSORGBOTTOM
 10
0.0
 20
0.0
 30
0.0
  9
$UCSORGLEFT
 10
0.0
 20
0.0
 30
0.0
  9
$UCSORGRIGHT
 10
0.0
 20
0.0
 30
0.0
  9
$UCSORGFRONT
 10
0.0
 20
0.0
 30
0.0
  9
$UCSORGBACK
 10
0.0
 20
0.0
 30
0.0
  9
$PUCSBASE
  2

  9
$PUCSNAME
  2

  9
$PUCSORG
 10
0.0
 20
0.0
 30
0.0
  9
$PUCSXDIR
 10
1.0
 20
0.0
 30
0.0
  9
$PUCSYDIR
 10
0.0
 20
1.0
 30
0.0
  9
$PUCSORTHOREF
  2

  9
$PUCSORTHOVIEW
 70
               0
  9
$PUCSORGTOP
 10
0.0
 20
0.0
 30
0.0
  9
$PUCSORGBOTTOM
 10
0.0
 20
0.0
 30
0.0
  9
$PUCSORGLEFT
 10
0.0
 20
0.0
 30
0.0
  9
$PUCSORGRIGHT
 10
0.0
 20
0.0
 30
0.0
  9
$PUCSORGFRONT
 10
0.0
 20
0.0
 30
0.0
  9
$PUCSORGBACK
 10
0.0
 20
0.0
 30
0.0
  9
$USERI1
 70
               0
  9
$USERI2
 70
               0
  9
$USERI3
 70
               0
  9
$USERI4
 70
               0
  9
$USERI5
 70
               0
  9
$USERR1
 40
0.0
  9
$USERR2
 40
0.0
  9
$USERR3
 40
0.0
  9
$USERR4
 40
0.0
  9
$USERR5
 40
0.0
  9
$WORLDVIEW
 70
               1
  9
$SHADEDGE
 70
               3
  9
$SHADEDIF
 70
              70
  9
$TILEMODE
 70
               1
  9
$MAXACTVP
 70
              64
  9
$PINSBASE
 10
0.0
 20
0.0
 30
0.0
  9
$PLIMCHECK
 70
               0
  9
$PEXTMIN
 10
1.0000000000000000E+20
 20
1.0000000000000000E+20
 30
1.0000000000000000E+20
  9
$PEXTMAX
 10
-1.0000000000000000E+20
 20
-1.0000000000000000E+20
 30
-1.0000000000000000E+20
  9
$PLIMMIN
 10
0.0
 20
0.0
  9
$PLIMMAX
 10
12.0
 20
9.0
  9
$UNITMODE
 70
               0
  9
$VISRETAIN
 70
               0
  9
$PLINEGEN
 70
               1
  9
$PSLTSCALE
 70
               0
  9
$TREEDEPTH
 70
            3020
  9
$CMLSTYLE
  2
Standard
  9
$CMLJUST
 70
               0
  9
$CMLSCALE
 40
1.0
  9
$PROXYGRAPHICS
 70
               0
  9
$MEASUREMENT
 70
               1
  9
$CELWEIGHT
370
               0
  9
$ENDCAPS
280
               0
  9
$JOINSTYLE
280
               0
  9
$LWDISPLAY
290
               1
  9
$INSUNITS
 70
               4
  9
$HYPERLINKBASE
  1

  9
$STYLESHEET
  1

  9
$XEDIT
290
               1
  9
$CEPSNTYPE
380
               0
  9
$PSTYLEMODE
290
               1
  9
$FINGERPRINTGUID
  2

  9
$VERSIONGUID
  2

  9
$EXTNAMES
290
               1
  9
$PSVPSCALE
 40
0.0
  0
ENDSEC
  0
SECTION
  2
CLASSES
  0
CLASS
  1
LWPOLYLINE
  2
AcDbPolyline
  3
AutoCAD 2000
 90
        0
280
               0
281
               1
  0
CLASS
  1
IMAGE
  2
AcDbRasterImage
  3
ISM
 90
    32895
280
               0
281
               1
  0
CLASS
  1
OLE2FRAME
  2
AcDbOle2Frame
  3
AutoCAD 2000
 90
    32768
280
               0
281
               1
  0
CLASS
  1
HATCH
  2
AcDbHatch
  3
AutoCAD 2000
 90
    32768
280
               0
281
               1
  0
CLASS
  1
DICTIONARYVAR
  2
AcDbDictionaryVar
  3
AutoCAD 2000
 90
    32768
280
               0
281
               0
  0
CLASS
  1
RASTERVARIABLES
  2
AcDbRasterVariables
  3
ISM
 90
    32768
280
               0
281
               0
  0
CLASS
  1
IMAGEDEF
  2
AcDbRasterImageDef
  3
ISM
 90
    32768
280
               0
281
               0
  0
CLASS
  1
IMAGEDEF_REACTOR
  2
AcDbRasterImageDefReactor
  3
ISM
 90
    32769
280
               0
281
               0
  0
CLASS
  1
IDBUFFER
  2
AcDbIdBuffer
  3
AutoCAD 2000
 90
    32768
280
               0
281
               0
  0
CLASS
  1
SPATIAL_FILTER
  2
AcDbSpatialFilter
  3
AutoCAD 2000
 90
    32768
280
               0
281
               0
  0
CLASS
  1
XRECORD
  2
AcDbXrecord
  3
AutoCAD 2000
 90
    32768
280
               0
281
               0
  0
CLASS
  1
SORTENTSTABLE
  2
AcDbSortentsTable
  3
AutoCAD 2000
 90
    32768
280
               0
281
               0
  0
CLASS
  1
LAYER_INDEX
  2
AcDbLayerIndex
  3
AutoCAD 2000
 90
    32768
280
               0
281
               0
  0
CLASS
  1
SPATIAL_INDEX
  2
AcDbSpatialIndex
  3
AutoCAD 2000
 90
    32768
280
               0
281
               0
  0
CLASS
  1
OBJECT_PTR
  2
CAseDLPNTableRecord
  3
"ASE-LPNTableRecord"
 90
    32769
280
               0
281
               0
  0
CLASS
  1
LAYOUT
  2
AcDbLayout
  3
AutoCAD 2000
 90
        0
280
               0
281
               0
  0
CLASS
  1
PLOTSETTINGS
  2
AcDbPlotSettings
  3
AutoCAD 2000
 90
    32768
280
               0
281
               0
  0
CLASS
  1
ACDBDICTIONARYWDFLT
  2
AcDbDictionaryWithDefault
  3
AutoCAD 2000
 90
        0
280
               0
281
               0
  0
CLASS
  1
ACDBPLACEHOLDER
  2
AcDbPlaceHolder
  3
AutoCAD 2000
 90
        0
280
               0
281
               0
  0
CLASS
  1
VBA_PROJECT
  2
AcDbVbaProject
  3
acadvba
 90
    32768
280
               0
281
               0
  0
CLASS
  1
WIPEOUT
  2
AcDbWipeout
  3
WipeOut|AutoCAD Express Tool|expresstools@autodesk.com
 90
      127
280
               0
281
               1
  0
CLASS
  1
WIPEOUTVARIABLES
  2
AcDbWipeoutVariables
  3
WipeOut|AutoCAD Express Tool|expresstools@autodesk.com
 90
        0
280
               0
281
               0
  0
CLASS
  1
RTEXT
  2
RText
  3
RText|AutoCAD Express Tool|expresstools@autodesk.com
 90
    32768
280
               0
281
               1
  0
CLASS
  1
ARCALIGNEDTEXT
  2
AcDbArcAlignedText
  3
ATEXT|AutoCAD Express Tool|expresstools@autodesk.com
 90
    32768
280
               0
281
               1
  0
ENDSEC
  0
SECTION
  2
TABLES
  0
TABLE
  2
VPORT
  5
7
100
AcDbSymbolTable
 70
               1
  0
VPORT
  5
15
100
AcDbSymbolTableRecord
100
AcDbViewportTableRecord
  2
*ACTIVE
 70
               0
 10
0.0
 20
0.0
 11
1.0
 21
1.0
 12
-136.7016515823052
 22
-230.64276505926136
 13
0.0
 23
0.0
 14
1.0
 24
1.0
 15
0.0
 25
0.0
 16
0.0
 26
0.0
 36
1.0
 17
0.0
 27
0.0
 37
0.0
 40
22861.285530118523
 41
0.688564
 42
50.0
 43
0.0
 44
0.0
 50
0.0
 51
0.0
 71
               0
 72
            2000
 73
               1
 74
               1
 75
               0
 76
               0
 77
               0
 78
               0
281
               0
 65
               0
110
0.0
120
0.0
130
0.0
111
1.0
121
0.0
131
0.0
112
0.0
122
1.0
132
0.0
345
0
346
0
 79
               0
146
0.0
  0
ENDTAB
  0
TABLE
  2
LTYPE
  5
4
100
AcDbSymbolTable
 70
              13
  0
LTYPE
  5
11
100
AcDbSymbolTableRecord
100
AcDbLinetypeTableRecord
  2
ByBlock
 70
              64
  3

 72
              65
 73
               0
 40
0.0
  0
LTYPE
  5
12
100
AcDbSymbolTableRecord
100
AcDbLinetypeTableRecord
  2
ByLayer
 70
              64
  3

 72
              65
 73
               0
 40
0.0
  0
LTYPE
  5
13
100
AcDbSymbolTableRecord
100
AcDbLinetypeTableRecord
  2
Continuous
 70
              64
  3
Solid line
 72
              65
 73
               0
 40
0.0
  0
LTYPE
  5
2E
100
AcDbSymbolTableRecord
100
AcDbLinetypeTableRecord
  2
STYLE_01
 70
               0
  3

 72
              65
 73
               2
 40
0.41664
 49
0.20828
 74
               0
 49
-0.20836
 74
               0
  0
LTYPE
  5
2F
100
AcDbSymbolTableRecord
100
AcDbLinetypeTableRecord
  2
STYLE_02
 70
               0
  3

 72
              65
 73
               2
 40
0.6944250000000001
 49
0.48607
 74
               0
 49
-0.2083550000000001
 74
               0
  0
LTYPE
  5
30
100
AcDbSymbolTableRecord
100
AcDbLinetypeTableRecord
  2
STYLE_03
 70
               0
  3

 72
              65
 73
               2
 40
1.25
 49
1.0416400000000001
 74
               0
 49
-0.2083599999999999
 74
               0
  0
LTYPE
  5
31
100
AcDbSymbolTableRecord
100
AcDbLinetypeTableRecord
  2
STYLE_04
 70
               0
  3

 72
              65
 73
               2
 40
1.5277099999999999
 49
1.3194249999999998
 74
               0
 49
-0.208285
 74
               0
  0
LTYPE
  5
32
100
AcDbSymbolTableRecord
100
AcDbLinetypeTableRecord
  2
STYLE_05
 70
               0
  3

 72
              65
 73
               2
 40
0.20828
 49
0.069425
 74
               0
 49
-0.138855
 74
               0
  0
LTYPE
  5
33
100
AcDbSymbolTableRecord
100
AcDbLinetypeTableRecord
  2
STYLE_06
 70
               0
  3

 72
              65
 73
               4
 40
1.0416400000000001
 49
0.625
 74
               0
 49
-0.20828
 74
               0
 49
0.06943
 74
               0
 49
-0.13893
 74
               0
  0
LTYPE
  5
34
100
AcDbSymbolTableRecord
100
AcDbLinetypeTableRecord
  2
STYLE_07
 70
               0
  3

 72
              65
 73
               6
 40
1.875
 49
0.625
 74
               0
 49
-0.20828
 74
               0
 49
0.6250000000000001
 74
               0
 49
-0.2083599999999999
 74
               0
 49
0.06943
 74
               0
 49
-0.1389299999999999
 74
               0
  0
LTYPE
  5
35
100
AcDbSymbolTableRecord
100
AcDbLinetypeTableRecord
  2
STYLE_08
 70
               0
  3

 72
              65
 73
               6
 40
1.25
 49
0.625
 74
               0
 49
-0.20828
 74
               0
 49
0.06943
 74
               0
 49
-0.13893
 74
               0
 49
0.0694299999999999
 74
               0
 49
-0.13893
 74
               0
  0
LTYPE
  5
36
100
AcDbSymbolTableRecord
100
AcDbLinetypeTableRecord
  2
STYLE_09
 70
               0
  3

 72
              65
 73
               4
 40
5.0
 49
3.75
 74
               0
 49
-0.2777849999999998
 74
               0
 49
0.6944300000000003
 74
               0
 49
-0.2777849999999998
 74
               0
  0
LTYPE
  5
37
100
AcDbSymbolTableRecord
100
AcDbLinetypeTableRecord
  2
STYLE_10
 70
               0
  3

 72
              65
 73
               6
 40
5.9375
 49
3.75
 74
               0
 49
-0.2777849999999998
 74
               0
 49
0.6944300000000003
 74
               0
 49
-0.2777849999999998
 74
               0
 49
0.625
 74
               0
 49
-0.3125
 74
               0
  0
ENDTAB
  0
TABLE
  2
LAYER
  5
2
100
AcDbSymbolTable
 70
               6
  0
LAYER
  5
14
100
AcDbSymbolTableRecord
100
AcDbLayerTableRecord
  2
0
 70
               0
 62
               7
  6
Continuous
290
               1
370
              -3
390
1D
  0
LAYER
  5
38
100
AcDbSymbolTableRecord
100
AcDbLayerTableRecord
  2
躯体
 70
               0
 62
               7
  6
Continuous
290
               1
370
              -3
390
1D
  0
LAYER
  5
39
100
AcDbSymbolTableRecord
100
AcDbLayerTableRecord
  2
グリッド
 70
               0
 62
               7
  6
Continuous
290
               1
370
              -3
390
1D
  0
LAYER
  5
3A
100
AcDbSymbolTableRecord
100
AcDbLayerTableRecord
  2
舞台機構
 70
               0
 62
               7
  6
Continuous
290
               1
370
              -3
390
1D
  0
LAYER
  5
3B
100
AcDbSymbolTableRecord
100
AcDbLayerTableRecord
  2
縮尺
 70
               0
 62
               7
  6
Continuous
290
               1
370
              -3
390
1D
  0
LAYER
  5
3C
100
AcDbSymbolTableRecord
100
AcDbLayerTableRecord
  2
タイトル
 70
               0
 62
               7
  6
Continuous
290
               1
370
              -3
390
1D
  0
ENDTAB
  0
TABLE
  2
STYLE
  5
3
100
AcDbSymbolTable
 70
               2
  0
STYLE
  5
17
100
AcDbSymbolTableRecord
100
AcDbTextStyleTableRecord
  2
Standard
 70
               0
 40
0.0
 41
1.0
 50
0.0
 71
               0
 42
0.0
  3
txt
  4
BIGFONT.SHX
  0
STYLE
  5
2D
100
AcDbSymbolTableRecord
100
AcDbTextStyleTableRecord
  2
ＭＳ ゴシック
 70
               0
 40
0.0
 41
1.0
 50
0.0
 71
               0
 42
0.0
  3

  4
ＭＳ ゴシック
1001
ACAD
1000
ＭＳ ゴシック
1071
        0
  0
ENDTAB
  0
TABLE
  2
VIEW
  5
5
100
AcDbSymbolTable
 70
               0
  0
ENDTAB
  0
TABLE
  2
UCS
  5
6
100
AcDbSymbolTable
 70
               0
  0
ENDTAB
  0
TABLE
  2
APPID
  5
8
100
AcDbSymbolTable
 70
               1
  0
APPID
  5
16
100
AcDbSymbolTableRecord
100
AcDbRegAppTableRecord
  2
ACAD
 70
               0
  0
ENDTAB
  0
TABLE
  2
DIMSTYLE
  5
9
100
AcDbSymbolTable
 70
               1
100
AcDbDimStyleTable
 71
               0
  0
DIMSTYLE
105
18
100
AcDbSymbolTableRecord
100
AcDbDimStyleTableRecord
  2
Standard
 70
               0
  3

  4

 40
1.0
 41
0.18
 42
0.0625
 43
0.38
 44
0.18
 45
0.0
 46
0.0
 47
0.0
 48
0.0
 71
               0
 72
               0
 73
               1
 74
               1
 75
               0
 76
               0
 77
               0
 78
               0
 79
               0
140
0.18
141
0.09
142
0.0
143
25.399999999999999
144
1.0
145
0.0
146
1.0
147
0.09
148
0.0
170
               0
171
               2
172
               0
173
               0
174
               0
175
               0
176
               0
177
               0
178
               0
179
               0
271
               4
272
               4
273
               2
274
               2
275
               0
276
               0
277
               2
278
              46
279
               0
280
               0
281
               0
282
               0
283
               1
284
               0
285
               0
286
               0
288
               0
340
17
341
0
342
0
343
0
344
0
371
              -2
372
              -2
  0
ENDTAB
  0
TABLE
  2
BLOCK_RECORD
  5
1
100
AcDbSymbolTable
 70
               9
  0
BLOCK_RECORD
  5
A
100
AcDbSymbolTableRecord
100
AcDbBlockTableRecord
  2
*MODEL_SPACE
340
20
  0
BLOCK_RECORD
  5
B
100
AcDbSymbolTableRecord
100
AcDbBlockTableRecord
  2
*PAPER_SPACE
340
21
  0
BLOCK_RECORD
  5
24
100
AcDbSymbolTableRecord
100
AcDbBlockTableRecord
  2
Batt Insulation
340
0
102
{BLKREFS
331
143
102
}
  0
BLOCK_RECORD
  5
25
100
AcDbSymbolTableRecord
100
AcDbBlockTableRecord
  2
Batt Insulation-1
340
0
102
{BLKREFS
331
144
102
}
  0
BLOCK_RECORD
  5
26
100
AcDbSymbolTableRecord
100
AcDbBlockTableRecord
  2
Batt Insulation-2
340
0
102
{BLKREFS
331
145
102
}
  0
BLOCK_RECORD
  5
27
100
AcDbSymbolTableRecord
100
AcDbBlockTableRecord
  2
Batt Insulation-3
340
0
102
{BLKREFS
331
146
102
}
  0
BLOCK_RECORD
  5
28
100
AcDbSymbolTableRecord
100
AcDbBlockTableRecord
  2
Batt Insulation-4
340
0
102
{BLKREFS
331
147
102
}
  0
BLOCK_RECORD
  5
29
100
AcDbSymbolTableRecord
100
AcDbBlockTableRecord
  2
Batt Insulation-5
340
0
102
{BLKREFS
331
148
102
}
  0
BLOCK_RECORD
  5
2A
100
AcDbSymbolTableRecord
100
AcDbBlockTableRecord
  2
Batt Insulation-6
340
0
102
{BLKREFS
331
149
102
}
  0
BLOCK_RECORD
  5
2B
100
AcDbSymbolTableRecord
100
AcDbBlockTableRecord
  2
Batt Insulation-7
340
0
102
{BLKREFS
331
14A
102
}
  0
BLOCK_RECORD
  5
2C
100
AcDbSymbolTableRecord
100
AcDbBlockTableRecord
  2
Batt Insulation-8
340
0
102
{BLKREFS
331
14B
102
}
  0
ENDTAB
  0
ENDSEC
  0
SECTION
  2
BLOCKS
  0
BLOCK
  5
D
100
AcDbEntity
  8
0
100
AcDbBlockBegin
  2
*MODEL_SPACE
 70
               0
 10
0.0
 20
0.0
 30
0.0
  3
*MODEL_SPACE
  1

  0
ENDBLK
  5
E
100
AcDbEntity
  8
0
100
AcDbBlockEnd
  0
BLOCK
  5
F
100
AcDbEntity
 67
               1
  8
0
100
AcDbBlockBegin
  2
*PAPER_SPACE
 70
               0
 10
0.0
 20
0.0
 30
0.0
  3
*PAPER_SPACE
  1

  0
ENDBLK
  5
10
100
AcDbEntity
 67
               1
  8
0
100
AcDbBlockEnd
  0
BLOCK
  5
3D
100
AcDbEntity
  8
舞台機構
100
AcDbBlockBegin
  2
Batt Insulation
 70
               2
 10
0.0
 20
0.0
 30
0.0
  3
Batt Insulation
  1

  0
WIPEOUT
  5
3E
100
AcDbEntity
  8
0
370
              15
  6
Continuous
 62
               7
 92
        0
100
AcDbWipeout
 90
        0
 10
1.5239999999999998
 20
-73.475999999999999
 30
0.0
 11
1935.7074901230374
 21
0.0
 31
0.0
 12
0.0
 22
1935.7074901230374
 32
0.0
 13
1.0
 23
1.0
340
0
 70
               7
280
               1
281
              50
282
              50
283
               0
360
0
 71
               2
 91
        5
 14
-0.5
 24
0.4248708801603303
 14
0.5
 24
0.4248708801603303
 14
0.5
 24
0.5
 14
-0.5
 24
0.5
 14
-0.5
 24
0.4248708801603303
  0
LWPOLYLINE
  5
3F
100
AcDbEntity
  8
0
370
              15
  6
Continuous
 62
               7
100
AcDbPolyline
 90
       79
 70
             128
 10
0.0
 20
-75.0
 42
0.5568826053827928
 10
41.385602972216439
 20
-8.1858772992591611
 10
33.240531263285
 20
8.1858772992591611
 42
-0.5568826053827928
 10
74.626134235501439
 20
75.0
 42
-0.5568826053827926
 10
116.01173720771789
 20
8.1858772992591611
 10
107.86666549878643
 20
-8.1858772992591469
 42
0.5568826053827926
 10
149.25226847100288
 20
-75.0
 42
0.5568826053827926
 10
190.63787144321932
 20
-8.1858772992591611
 10
182.49279973428787
 20
8.1858772992591753
 42
-0.5568826053827928
 10
223.87840270650432
 20
75.0
 42
-0.5568826053827928
 10
265.26400567872076
 20
8.1858772992591611
 10
257.11893396978928
 20
-8.1858772992591327
 42
0.556882605382792
 10
298.50453694200576
 20
-75.0
 42
0.5568826053827926
 10
339.89013991422223
 20
-8.1858772992591327
 10
331.74506820529075
 20
8.1858772992591753
 42
-0.5568826053827926
 10
373.13067117750722
 20
75.0
 42
-0.5568826053827926
 10
414.5162741497237
 20
8.1858772992591753
 10
406.37120244079222
 20
-8.1858772992591895
 42
0.5568826053827923
 10
447.75680541300864
 20
-75.0
 42
0.5568826053827928
 10
489.14240838522505
 20
-8.1858772992591895
 10
480.99733667629357
 20
8.1858772992591327
 42
-0.5568826053827928
 10
522.38293964851005
 20
75.0
 42
-0.5568826053827932
 10
563.76854262072652
 20
8.1858772992591327
 10
555.62347091179504
 20
-8.1858772992591327
 42
0.5568826053827919
 10
597.00907388401151
 20
-75.0
 42
0.5568826053827923
 10
638.39467685622799
 20
-8.1858772992591327
 10
630.24960514729651
 20
8.1858772992591327
 42
-0.5568826053827923
 10
671.63520811951298
 20
75.0
 42
-0.5568826053827934
 10
713.02081109172946
 20
8.1858772992591327
 10
704.87573938279797
 20
-8.1858772992591327
 42
0.5568826053827916
 10
746.26134235501445
 20
-75.0
 42
0.5568826053827928
 10
787.64694532723092
 20
-8.1858772992591327
 10
779.50187361829944
 20
8.1858772992591327
 42
-0.5568826053827928
 10
820.88747659051592
 20
75.0
 42
-0.5568826053827923
 10
862.27307956273239
 20
8.1858772992591327
 10
854.12800785380091
 20
-8.1858772992591327
 42
0.5568826053827928
 10
895.51361082601738
 20
-75.0
 42
0.5568826053827928
 10
936.89921379823386
 20
-8.1858772992591327
 10
928.75414208930238
 20
8.1858772992591327
 42
-0.5568826053827928
 10
970.13974506151885
 20
75.0
 42
-0.5568826053827932
 10
1011.5253480337353
 20
8.1858772992591327
 10
1003.3802763248038
 20
-8.1858772992591327
 42
0.5568826053827928
 10
1044.7658792970203
 20
-75.0
 42
0.556882605382792
 10
1086.1514822692368
 20
-8.1858772992591327
 10
1078.0064105603053
 20
8.1858772992591327
 42
-0.5568826053827928
 10
1119.3920135325218
 20
75.0
 42
-0.5568826053827943
 10
1160.7776165047383
 20
8.1858772992591327
 10
1152.6325447958068
 20
-8.1858772992591327
 42
0.5568826053827928
 10
1194.0181477680233
 20
-75.0
 42
0.5568826053827928
 10
1235.4037507402397
 20
-8.1858772992591327
 10
1227.2586790313082
 20
8.1858772992591327
 42
-0.556882605382792
 10
1268.6442820035247
 20
75.0
 42
-0.5568826053827943
 10
1310.0298849757412
 20
8.1858772992591327
 10
1301.8848132668097
 20
-8.1858772992591327
 42
0.5568826053827928
 10
1343.2704162390262
 20
-75.0
 42
0.5568826053827928
 10
1384.6560192112427
 20
-8.1858772992591327
 10
1376.5109475023112
 20
8.1858772992591327
 42
-0.5568826053827928
 10
1417.8965504745277
 20
75.0
 42
-0.556882605382792
 10
1459.2821534467441
 20
8.1858772992591327
 10
1451.1370817378127
 20
-8.1858772992591327
 42
0.5568826053827904
 10
1492.5226847100291
 20
-75.0
 42
0.5568826053827928
 10
1533.9082876822456
 20
-8.1858772992591327
 10
1525.7632159733141
 20
8.1858772992591327
 42
-0.5568826053827928
 10
1567.1488189455306
 20
75.0
 42
-0.5568826053827943
 10
1608.5344219177471
 20
8.1858772992591327
 10
1600.3893502088156
 20
-8.1858772992591327
 42
0.5568826053827911
 10
1641.7749531810321
 20
-75.0
 42
0.556882605382792
 10
1683.1605561532485
 20
-8.1858772992591327
 10
1675.0154844443171
 20
8.1858772992591327
 42
-0.5568826053827928
 10
1716.4010874165335
 20
75.0
 42
-0.5568826053827943
 10
1757.78669038875
 20
8.1858772992591327
 10
1749.6416186798185
 20
-8.1858772992591327
 42
0.5568826053827911
 10
1791.027221652035
 20
-75.0
 42
0.5568826053827928
 10
1832.4128246242515
 20
-8.1858772992591327
 10
1824.26775291532
 20
8.1858772992591327
 42
-0.5568826053827928
 10
1865.6533558875365
 20
75.0
 42
-0.5568826053827928
 10
1907.0389588597529
 20
8.1858772992591327
 10
1898.8938871508215
 20
-8.1858772992591327
 42
0.5568826053827911
 10
1940.2794901230379
 20
-75.0
 42
0.5568826053827911
  0
ENDBLK
  5
40
100
AcDbEntity
  8
舞台機構
100
AcDbBlockEnd
  0
BLOCK
  5
41
100
AcDbEntity
  8
舞台機構
100
AcDbBlockBegin
  2
Batt Insulation-1
 70
               2
 10
0.0
 20
0.0
 30
0.0
  3
Batt Insulation-1
  1

  0
WIPEOUT
  5
42
100
AcDbEntity
  8
0
370
              15
  6
Continuous
 62
               7
 92
        0
100
AcDbWipeout
 90
        0
 10
1.5239999999999998
 20
-73.475999999999999
 30
0.0
 11
1935.7074901230374
 21
0.0
 31
0.0
 12
0.0
 22
1935.7074901230374
 32
0.0
 13
1.0
 23
1.0
340
0
 70
               7
280
               1
281
              50
282
              50
283
               0
360
0
 71
               2
 91
        5
 14
-0.5
 24
0.4248708801603303
 14
0.5
 24
0.4248708801603303
 14
0.5
 24
0.5
 14
-0.5
 24
0.5
 14
-0.5
 24
0.4248708801603303
  0
LWPOLYLINE
  5
43
100
AcDbEntity
  8
0
370
              15
  6
Continuous
 62
               7
100
AcDbPolyline
 90
       79
 70
             128
 10
0.0
 20
-75.0
 42
0.5568826053827928
 10
41.385602972216439
 20
-8.1858772992591611
 10
33.240531263285
 20
8.1858772992591611
 42
-0.5568826053827928
 10
74.626134235501439
 20
75.0
 42
-0.5568826053827926
 10
116.01173720771789
 20
8.1858772992591611
 10
107.86666549878643
 20
-8.1858772992591469
 42
0.5568826053827926
 10
149.25226847100288
 20
-75.0
 42
0.5568826053827926
 10
190.63787144321932
 20
-8.1858772992591611
 10
182.49279973428787
 20
8.1858772992591753
 42
-0.5568826053827928
 10
223.87840270650432
 20
75.0
 42
-0.5568826053827928
 10
265.26400567872076
 20
8.1858772992591611
 10
257.11893396978928
 20
-8.1858772992591327
 42
0.556882605382792
 10
298.50453694200576
 20
-75.0
 42
0.5568826053827926
 10
339.89013991422223
 20
-8.1858772992591327
 10
331.74506820529075
 20
8.1858772992591753
 42
-0.5568826053827926
 10
373.13067117750722
 20
75.0
 42
-0.5568826053827926
 10
414.5162741497237
 20
8.1858772992591753
 10
406.37120244079222
 20
-8.1858772992591895
 42
0.5568826053827923
 10
447.75680541300864
 20
-75.0
 42
0.5568826053827928
 10
489.14240838522505
 20
-8.1858772992591895
 10
480.99733667629357
 20
8.1858772992591327
 42
-0.5568826053827928
 10
522.38293964851005
 20
75.0
 42
-0.5568826053827932
 10
563.76854262072652
 20
8.1858772992591327
 10
555.62347091179504
 20
-8.1858772992591327
 42
0.5568826053827919
 10
597.00907388401151
 20
-75.0
 42
0.5568826053827923
 10
638.39467685622799
 20
-8.1858772992591327
 10
630.24960514729651
 20
8.1858772992591327
 42
-0.5568826053827923
 10
671.63520811951298
 20
75.0
 42
-0.5568826053827934
 10
713.02081109172946
 20
8.1858772992591327
 10
704.87573938279797
 20
-8.1858772992591327
 42
0.5568826053827916
 10
746.26134235501445
 20
-75.0
 42
0.5568826053827928
 10
787.64694532723092
 20
-8.1858772992591327
 10
779.50187361829944
 20
8.1858772992591327
 42
-0.5568826053827928
 10
820.88747659051592
 20
75.0
 42
-0.5568826053827923
 10
862.27307956273239
 20
8.1858772992591327
 10
854.12800785380091
 20
-8.1858772992591327
 42
0.5568826053827928
 10
895.51361082601738
 20
-75.0
 42
0.5568826053827928
 10
936.89921379823386
 20
-8.1858772992591327
 10
928.75414208930238
 20
8.1858772992591327
 42
-0.5568826053827928
 10
970.13974506151885
 20
75.0
 42
-0.5568826053827932
 10
1011.5253480337353
 20
8.1858772992591327
 10
1003.3802763248038
 20
-8.1858772992591327
 42
0.5568826053827928
 10
1044.7658792970203
 20
-75.0
 42
0.556882605382792
 10
1086.1514822692368
 20
-8.1858772992591327
 10
1078.0064105603053
 20
8.1858772992591327
 42
-0.5568826053827928
 10
1119.3920135325218
 20
75.0
 42
-0.5568826053827943
 10
1160.7776165047383
 20
8.1858772992591327
 10
1152.6325447958068
 20
-8.1858772992591327
 42
0.5568826053827928
 10
1194.0181477680233
 20
-75.0
 42
0.5568826053827928
 10
1235.4037507402397
 20
-8.1858772992591327
 10
1227.2586790313082
 20
8.1858772992591327
 42
-0.556882605382792
 10
1268.6442820035247
 20
75.0
 42
-0.5568826053827943
 10
1310.0298849757412
 20
8.1858772992591327
 10
1301.8848132668097
 20
-8.1858772992591327
 42
0.5568826053827928
 10
1343.2704162390262
 20
-75.0
 42
0.5568826053827928
 10
1384.6560192112427
 20
-8.1858772992591327
 10
1376.5109475023112
 20
8.1858772992591327
 42
-0.5568826053827928
 10
1417.8965504745277
 20
75.0
 42
-0.556882605382792
 10
1459.2821534467441
 20
8.1858772992591327
 10
1451.1370817378127
 20
-8.1858772992591327
 42
0.5568826053827904
 10
1492.5226847100291
 20
-75.0
 42
0.5568826053827928
 10
1533.9082876822456
 20
-8.1858772992591327
 10
1525.7632159733141
 20
8.1858772992591327
 42
-0.5568826053827928
 10
1567.1488189455306
 20
75.0
 42
-0.5568826053827943
 10
1608.5344219177471
 20
8.1858772992591327
 10
1600.3893502088156
 20
-8.1858772992591327
 42
0.5568826053827911
 10
1641.7749531810321
 20
-75.0
 42
0.556882605382792
 10
1683.1605561532485
 20
-8.1858772992591327
 10
1675.0154844443171
 20
8.1858772992591327
 42
-0.5568826053827928
 10
1716.4010874165335
 20
75.0
 42
-0.5568826053827943
 10
1757.78669038875
 20
8.1858772992591327
 10
1749.6416186798185
 20
-8.1858772992591327
 42
0.5568826053827911
 10
1791.027221652035
 20
-75.0
 42
0.5568826053827928
 10
1832.4128246242515
 20
-8.1858772992591327
 10
1824.26775291532
 20
8.1858772992591327
 42
-0.5568826053827928
 10
1865.6533558875365
 20
75.0
 42
-0.5568826053827928
 10
1907.0389588597529
 20
8.1858772992591327
 10
1898.8938871508215
 20
-8.1858772992591327
 42
0.5568826053827911
 10
1940.2794901230379
 20
-75.0
 42
0.5568826053827911
  0
ENDBLK
  5
44
100
AcDbEntity
  8
舞台機構
100
AcDbBlockEnd
  0
BLOCK
  5
45
100
AcDbEntity
  8
舞台機構
100
AcDbBlockBegin
  2
Batt Insulation-2
 70
               2
 10
0.0
 20
0.0
 30
0.0
  3
Batt Insulation-2
  1

  0
WIPEOUT
  5
46
100
AcDbEntity
  8
0
370
              15
  6
Continuous
 62
               7
 92
        0
100
AcDbWipeout
 90
        0
 10
1.5239999999999998
 20
-73.475999999999999
 30
0.0
 11
1935.7074901230374
 21
0.0
 31
0.0
 12
0.0
 22
1935.7074901230374
 32
0.0
 13
1.0
 23
1.0
340
0
 70
               7
280
               1
281
              50
282
              50
283
               0
360
0
 71
               2
 91
        5
 14
-0.5
 24
0.4248708801603303
 14
0.5
 24
0.4248708801603303
 14
0.5
 24
0.5
 14
-0.5
 24
0.5
 14
-0.5
 24
0.4248708801603303
  0
LWPOLYLINE
  5
47
100
AcDbEntity
  8
0
370
              15
  6
Continuous
 62
               7
100
AcDbPolyline
 90
       79
 70
             128
 10
0.0
 20
-75.0
 42
0.5568826053827928
 10
41.385602972216439
 20
-8.1858772992591611
 10
33.240531263285
 20
8.1858772992591611
 42
-0.5568826053827928
 10
74.626134235501439
 20
75.0
 42
-0.5568826053827926
 10
116.01173720771789
 20
8.1858772992591611
 10
107.86666549878643
 20
-8.1858772992591469
 42
0.5568826053827926
 10
149.25226847100288
 20
-75.0
 42
0.5568826053827926
 10
190.63787144321932
 20
-8.1858772992591611
 10
182.49279973428787
 20
8.1858772992591753
 42
-0.5568826053827928
 10
223.87840270650432
 20
75.0
 42
-0.5568826053827928
 10
265.26400567872076
 20
8.1858772992591611
 10
257.11893396978928
 20
-8.1858772992591327
 42
0.556882605382792
 10
298.50453694200576
 20
-75.0
 42
0.5568826053827926
 10
339.89013991422223
 20
-8.1858772992591327
 10
331.74506820529075
 20
8.1858772992591753
 42
-0.5568826053827926
 10
373.13067117750722
 20
75.0
 42
-0.5568826053827926
 10
414.5162741497237
 20
8.1858772992591753
 10
406.37120244079222
 20
-8.1858772992591895
 42
0.5568826053827923
 10
447.75680541300864
 20
-75.0
 42
0.5568826053827928
 10
489.14240838522505
 20
-8.1858772992591895
 10
480.99733667629357
 20
8.1858772992591327
 42
-0.5568826053827928
 10
522.38293964851005
 20
75.0
 42
-0.5568826053827932
 10
563.76854262072652
 20
8.1858772992591327
 10
555.62347091179504
 20
-8.1858772992591327
 42
0.5568826053827919
 10
597.00907388401151
 20
-75.0
 42
0.5568826053827923
 10
638.39467685622799
 20
-8.1858772992591327
 10
630.24960514729651
 20
8.1858772992591327
 42
-0.5568826053827923
 10
671.63520811951298
 20
75.0
 42
-0.5568826053827934
 10
713.02081109172946
 20
8.1858772992591327
 10
704.87573938279797
 20
-8.1858772992591327
 42
0.5568826053827916
 10
746.26134235501445
 20
-75.0
 42
0.5568826053827928
 10
787.64694532723092
 20
-8.1858772992591327
 10
779.50187361829944
 20
8.1858772992591327
 42
-0.5568826053827928
 10
820.88747659051592
 20
75.0
 42
-0.5568826053827923
 10
862.27307956273239
 20
8.1858772992591327
 10
854.12800785380091
 20
-8.1858772992591327
 42
0.5568826053827928
 10
895.51361082601738
 20
-75.0
 42
0.5568826053827928
 10
936.89921379823386
 20
-8.1858772992591327
 10
928.75414208930238
 20
8.1858772992591327
 42
-0.5568826053827928
 10
970.13974506151885
 20
75.0
 42
-0.5568826053827932
 10
1011.5253480337353
 20
8.1858772992591327
 10
1003.3802763248038
 20
-8.1858772992591327
 42
0.5568826053827928
 10
1044.7658792970203
 20
-75.0
 42
0.556882605382792
 10
1086.1514822692368
 20
-8.1858772992591327
 10
1078.0064105603053
 20
8.1858772992591327
 42
-0.5568826053827928
 10
1119.3920135325218
 20
75.0
 42
-0.5568826053827943
 10
1160.7776165047383
 20
8.1858772992591327
 10
1152.6325447958068
 20
-8.1858772992591327
 42
0.5568826053827928
 10
1194.0181477680233
 20
-75.0
 42
0.5568826053827928
 10
1235.4037507402397
 20
-8.1858772992591327
 10
1227.2586790313082
 20
8.1858772992591327
 42
-0.556882605382792
 10
1268.6442820035247
 20
75.0
 42
-0.5568826053827943
 10
1310.0298849757412
 20
8.1858772992591327
 10
1301.8848132668097
 20
-8.1858772992591327
 42
0.5568826053827928
 10
1343.2704162390262
 20
-75.0
 42
0.5568826053827928
 10
1384.6560192112427
 20
-8.1858772992591327
 10
1376.5109475023112
 20
8.1858772992591327
 42
-0.5568826053827928
 10
1417.8965504745277
 20
75.0
 42
-0.556882605382792
 10
1459.2821534467441
 20
8.1858772992591327
 10
1451.1370817378127
 20
-8.1858772992591327
 42
0.5568826053827904
 10
1492.5226847100291
 20
-75.0
 42
0.5568826053827928
 10
1533.9082876822456
 20
-8.1858772992591327
 10
1525.7632159733141
 20
8.1858772992591327
 42
-0.5568826053827928
 10
1567.1488189455306
 20
75.0
 42
-0.5568826053827943
 10
1608.5344219177471
 20
8.1858772992591327
 10
1600.3893502088156
 20
-8.1858772992591327
 42
0.5568826053827911
 10
1641.7749531810321
 20
-75.0
 42
0.556882605382792
 10
1683.1605561532485
 20
-8.1858772992591327
 10
1675.0154844443171
 20
8.1858772992591327
 42
-0.5568826053827928
 10
1716.4010874165335
 20
75.0
 42
-0.5568826053827943
 10
1757.78669038875
 20
8.1858772992591327
 10
1749.6416186798185
 20
-8.1858772992591327
 42
0.5568826053827911
 10
1791.027221652035
 20
-75.0
 42
0.5568826053827928
 10
1832.4128246242515
 20
-8.1858772992591327
 10
1824.26775291532
 20
8.1858772992591327
 42
-0.5568826053827928
 10
1865.6533558875365
 20
75.0
 42
-0.5568826053827928
 10
1907.0389588597529
 20
8.1858772992591327
 10
1898.8938871508215
 20
-8.1858772992591327
 42
0.5568826053827911
 10
1940.2794901230379
 20
-75.0
 42
0.5568826053827911
  0
ENDBLK
  5
48
100
AcDbEntity
  8
舞台機構
100
AcDbBlockEnd
  0
BLOCK
  5
49
100
AcDbEntity
  8
舞台機構
100
AcDbBlockBegin
  2
Batt Insulation-3
 70
               2
 10
0.0
 20
0.0
 30
0.0
  3
Batt Insulation-3
  1

  0
WIPEOUT
  5
4A
100
AcDbEntity
  8
0
370
              15
  6
Continuous
 62
               7
 92
        0
100
AcDbWipeout
 90
        0
 10
1.5239999999999998
 20
-73.475999999999999
 30
0.0
 11
1935.7074901230374
 21
0.0
 31
0.0
 12
0.0
 22
1935.7074901230374
 32
0.0
 13
1.0
 23
1.0
340
0
 70
               7
280
               1
281
              50
282
              50
283
               0
360
0
 71
               2
 91
        5
 14
-0.5
 24
0.4248708801603303
 14
0.5
 24
0.4248708801603303
 14
0.5
 24
0.5
 14
-0.5
 24
0.5
 14
-0.5
 24
0.4248708801603303
  0
LWPOLYLINE
  5
4B
100
AcDbEntity
  8
0
370
              15
  6
Continuous
 62
               7
100
AcDbPolyline
 90
       79
 70
             128
 10
0.0
 20
-75.0
 42
0.5568826053827928
 10
41.385602972216439
 20
-8.1858772992591611
 10
33.240531263285
 20
8.1858772992591611
 42
-0.5568826053827928
 10
74.626134235501439
 20
75.0
 42
-0.5568826053827926
 10
116.01173720771789
 20
8.1858772992591611
 10
107.86666549878643
 20
-8.1858772992591469
 42
0.5568826053827926
 10
149.25226847100288
 20
-75.0
 42
0.5568826053827926
 10
190.63787144321932
 20
-8.1858772992591611
 10
182.49279973428787
 20
8.1858772992591753
 42
-0.5568826053827928
 10
223.87840270650432
 20
75.0
 42
-0.5568826053827928
 10
265.26400567872076
 20
8.1858772992591611
 10
257.11893396978928
 20
-8.1858772992591327
 42
0.556882605382792
 10
298.50453694200576
 20
-75.0
 42
0.5568826053827926
 10
339.89013991422223
 20
-8.1858772992591327
 10
331.74506820529075
 20
8.1858772992591753
 42
-0.5568826053827926
 10
373.13067117750722
 20
75.0
 42
-0.5568826053827926
 10
414.5162741497237
 20
8.1858772992591753
 10
406.37120244079222
 20
-8.1858772992591895
 42
0.5568826053827923
 10
447.75680541300864
 20
-75.0
 42
0.5568826053827928
 10
489.14240838522505
 20
-8.1858772992591895
 10
480.99733667629357
 20
8.1858772992591327
 42
-0.5568826053827928
 10
522.38293964851005
 20
75.0
 42
-0.5568826053827932
 10
563.76854262072652
 20
8.1858772992591327
 10
555.62347091179504
 20
-8.1858772992591327
 42
0.5568826053827919
 10
597.00907388401151
 20
-75.0
 42
0.5568826053827923
 10
638.39467685622799
 20
-8.1858772992591327
 10
630.24960514729651
 20
8.1858772992591327
 42
-0.5568826053827923
 10
671.63520811951298
 20
75.0
 42
-0.5568826053827934
 10
713.02081109172946
 20
8.1858772992591327
 10
704.87573938279797
 20
-8.1858772992591327
 42
0.5568826053827916
 10
746.26134235501445
 20
-75.0
 42
0.5568826053827928
 10
787.64694532723092
 20
-8.1858772992591327
 10
779.50187361829944
 20
8.1858772992591327
 42
-0.5568826053827928
 10
820.88747659051592
 20
75.0
 42
-0.5568826053827923
 10
862.27307956273239
 20
8.1858772992591327
 10
854.12800785380091
 20
-8.1858772992591327
 42
0.5568826053827928
 10
895.51361082601738
 20
-75.0
 42
0.5568826053827928
 10
936.89921379823386
 20
-8.1858772992591327
 10
928.75414208930238
 20
8.1858772992591327
 42
-0.5568826053827928
 10
970.13974506151885
 20
75.0
 42
-0.5568826053827932
 10
1011.5253480337353
 20
8.1858772992591327
 10
1003.3802763248038
 20
-8.1858772992591327
 42
0.5568826053827928
 10
1044.7658792970203
 20
-75.0
 42
0.556882605382792
 10
1086.1514822692368
 20
-8.1858772992591327
 10
1078.0064105603053
 20
8.1858772992591327
 42
-0.5568826053827928
 10
1119.3920135325218
 20
75.0
 42
-0.5568826053827943
 10
1160.7776165047383
 20
8.1858772992591327
 10
1152.6325447958068
 20
-8.1858772992591327
 42
0.5568826053827928
 10
1194.0181477680233
 20
-75.0
 42
0.5568826053827928
 10
1235.4037507402397
 20
-8.1858772992591327
 10
1227.2586790313082
 20
8.1858772992591327
 42
-0.556882605382792
 10
1268.6442820035247
 20
75.0
 42
-0.5568826053827943
 10
1310.0298849757412
 20
8.1858772992591327
 10
1301.8848132668097
 20
-8.1858772992591327
 42
0.5568826053827928
 10
1343.2704162390262
 20
-75.0
 42
0.5568826053827928
 10
1384.6560192112427
 20
-8.1858772992591327
 10
1376.5109475023112
 20
8.1858772992591327
 42
-0.5568826053827928
 10
1417.8965504745277
 20
75.0
 42
-0.556882605382792
 10
1459.2821534467441
 20
8.1858772992591327
 10
1451.1370817378127
 20
-8.1858772992591327
 42
0.5568826053827904
 10
1492.5226847100291
 20
-75.0
 42
0.5568826053827928
 10
1533.9082876822456
 20
-8.1858772992591327
 10
1525.7632159733141
 20
8.1858772992591327
 42
-0.5568826053827928
 10
1567.1488189455306
 20
75.0
 42
-0.5568826053827943
 10
1608.5344219177471
 20
8.1858772992591327
 10
1600.3893502088156
 20
-8.1858772992591327
 42
0.5568826053827911
 10
1641.7749531810321
 20
-75.0
 42
0.556882605382792
 10
1683.1605561532485
 20
-8.1858772992591327
 10
1675.0154844443171
 20
8.1858772992591327
 42
-0.5568826053827928
 10
1716.4010874165335
 20
75.0
 42
-0.5568826053827943
 10
1757.78669038875
 20
8.1858772992591327
 10
1749.6416186798185
 20
-8.1858772992591327
 42
0.5568826053827911
 10
1791.027221652035
 20
-75.0
 42
0.5568826053827928
 10
1832.4128246242515
 20
-8.1858772992591327
 10
1824.26775291532
 20
8.1858772992591327
 42
-0.5568826053827928
 10
1865.6533558875365
 20
75.0
 42
-0.5568826053827928
 10
1907.0389588597529
 20
8.1858772992591327
 10
1898.8938871508215
 20
-8.1858772992591327
 42
0.5568826053827911
 10
1940.2794901230379
 20
-75.0
 42
0.5568826053827911
  0
ENDBLK
  5
4C
100
AcDbEntity
  8
舞台機構
100
AcDbBlockEnd
  0
BLOCK
  5
4D
100
AcDbEntity
  8
舞台機構
100
AcDbBlockBegin
  2
Batt Insulation-4
 70
               2
 10
0.0
 20
0.0
 30
0.0
  3
Batt Insulation-4
  1

  0
WIPEOUT
  5
4E
100
AcDbEntity
  8
0
370
              15
  6
Continuous
 62
               7
 92
        0
100
AcDbWipeout
 90
        0
 10
1.5239999999999998
 20
-73.475999999999999
 30
0.0
 11
1935.7074901230374
 21
0.0
 31
0.0
 12
0.0
 22
1935.7074901230374
 32
0.0
 13
1.0
 23
1.0
340
0
 70
               7
280
               1
281
              50
282
              50
283
               0
360
0
 71
               2
 91
        5
 14
-0.5
 24
0.4248708801603303
 14
0.5
 24
0.4248708801603303
 14
0.5
 24
0.5
 14
-0.5
 24
0.5
 14
-0.5
 24
0.4248708801603303
  0
LWPOLYLINE
  5
4F
100
AcDbEntity
  8
0
370
              15
  6
Continuous
 62
               7
100
AcDbPolyline
 90
       79
 70
             128
 10
0.0
 20
-75.0
 42
0.5568826053827928
 10
41.385602972216439
 20
-8.1858772992591611
 10
33.240531263285
 20
8.1858772992591611
 42
-0.5568826053827928
 10
74.626134235501439
 20
75.0
 42
-0.5568826053827926
 10
116.01173720771789
 20
8.1858772992591611
 10
107.86666549878643
 20
-8.1858772992591469
 42
0.5568826053827926
 10
149.25226847100288
 20
-75.0
 42
0.5568826053827926
 10
190.63787144321932
 20
-8.1858772992591611
 10
182.49279973428787
 20
8.1858772992591753
 42
-0.5568826053827928
 10
223.87840270650432
 20
75.0
 42
-0.5568826053827928
 10
265.26400567872076
 20
8.1858772992591611
 10
257.11893396978928
 20
-8.1858772992591327
 42
0.556882605382792
 10
298.50453694200576
 20
-75.0
 42
0.5568826053827926
 10
339.89013991422223
 20
-8.1858772992591327
 10
331.74506820529075
 20
8.1858772992591753
 42
-0.5568826053827926
 10
373.13067117750722
 20
75.0
 42
-0.5568826053827926
 10
414.5162741497237
 20
8.1858772992591753
 10
406.37120244079222
 20
-8.1858772992591895
 42
0.5568826053827923
 10
447.75680541300864
 20
-75.0
 42
0.5568826053827928
 10
489.14240838522505
 20
-8.1858772992591895
 10
480.99733667629357
 20
8.1858772992591327
 42
-0.5568826053827928
 10
522.38293964851005
 20
75.0
 42
-0.5568826053827932
 10
563.76854262072652
 20
8.1858772992591327
 10
555.62347091179504
 20
-8.1858772992591327
 42
0.5568826053827919
 10
597.00907388401151
 20
-75.0
 42
0.5568826053827923
 10
638.39467685622799
 20
-8.1858772992591327
 10
630.24960514729651
 20
8.1858772992591327
 42
-0.5568826053827923
 10
671.63520811951298
 20
75.0
 42
-0.5568826053827934
 10
713.02081109172946
 20
8.1858772992591327
 10
704.87573938279797
 20
-8.1858772992591327
 42
0.5568826053827916
 10
746.26134235501445
 20
-75.0
 42
0.5568826053827928
 10
787.64694532723092
 20
-8.1858772992591327
 10
779.50187361829944
 20
8.1858772992591327
 42
-0.5568826053827928
 10
820.88747659051592
 20
75.0
 42
-0.5568826053827923
 10
862.27307956273239
 20
8.1858772992591327
 10
854.12800785380091
 20
-8.1858772992591327
 42
0.5568826053827928
 10
895.51361082601738
 20
-75.0
 42
0.5568826053827928
 10
936.89921379823386
 20
-8.1858772992591327
 10
928.75414208930238
 20
8.1858772992591327
 42
-0.5568826053827928
 10
970.13974506151885
 20
75.0
 42
-0.5568826053827932
 10
1011.5253480337353
 20
8.1858772992591327
 10
1003.3802763248038
 20
-8.1858772992591327
 42
0.5568826053827928
 10
1044.7658792970203
 20
-75.0
 42
0.556882605382792
 10
1086.1514822692368
 20
-8.1858772992591327
 10
1078.0064105603053
 20
8.1858772992591327
 42
-0.5568826053827928
 10
1119.3920135325218
 20
75.0
 42
-0.5568826053827943
 10
1160.7776165047383
 20
8.1858772992591327
 10
1152.6325447958068
 20
-8.1858772992591327
 42
0.5568826053827928
 10
1194.0181477680233
 20
-75.0
 42
0.5568826053827928
 10
1235.4037507402397
 20
-8.1858772992591327
 10
1227.2586790313082
 20
8.1858772992591327
 42
-0.556882605382792
 10
1268.6442820035247
 20
75.0
 42
-0.5568826053827943
 10
1310.0298849757412
 20
8.1858772992591327
 10
1301.8848132668097
 20
-8.1858772992591327
 42
0.5568826053827928
 10
1343.2704162390262
 20
-75.0
 42
0.5568826053827928
 10
1384.6560192112427
 20
-8.1858772992591327
 10
1376.5109475023112
 20
8.1858772992591327
 42
-0.5568826053827928
 10
1417.8965504745277
 20
75.0
 42
-0.556882605382792
 10
1459.2821534467441
 20
8.1858772992591327
 10
1451.1370817378127
 20
-8.1858772992591327
 42
0.5568826053827904
 10
1492.5226847100291
 20
-75.0
 42
0.5568826053827928
 10
1533.9082876822456
 20
-8.1858772992591327
 10
1525.7632159733141
 20
8.1858772992591327
 42
-0.5568826053827928
 10
1567.1488189455306
 20
75.0
 42
-0.5568826053827943
 10
1608.5344219177471
 20
8.1858772992591327
 10
1600.3893502088156
 20
-8.1858772992591327
 42
0.5568826053827911
 10
1641.7749531810321
 20
-75.0
 42
0.556882605382792
 10
1683.1605561532485
 20
-8.1858772992591327
 10
1675.0154844443171
 20
8.1858772992591327
 42
-0.5568826053827928
 10
1716.4010874165335
 20
75.0
 42
-0.5568826053827943
 10
1757.78669038875
 20
8.1858772992591327
 10
1749.6416186798185
 20
-8.1858772992591327
 42
0.5568826053827911
 10
1791.027221652035
 20
-75.0
 42
0.5568826053827928
 10
1832.4128246242515
 20
-8.1858772992591327
 10
1824.26775291532
 20
8.1858772992591327
 42
-0.5568826053827928
 10
1865.6533558875365
 20
75.0
 42
-0.5568826053827928
 10
1907.0389588597529
 20
8.1858772992591327
 10
1898.8938871508215
 20
-8.1858772992591327
 42
0.5568826053827911
 10
1940.2794901230379
 20
-75.0
 42
0.5568826053827911
  0
ENDBLK
  5
50
100
AcDbEntity
  8
舞台機構
100
AcDbBlockEnd
  0
BLOCK
  5
51
100
AcDbEntity
  8
舞台機構
100
AcDbBlockBegin
  2
Batt Insulation-5
 70
               2
 10
0.0
 20
0.0
 30
0.0
  3
Batt Insulation-5
  1

  0
WIPEOUT
  5
52
100
AcDbEntity
  8
0
370
              15
  6
Continuous
 62
               7
 92
        0
100
AcDbWipeout
 90
        0
 10
1.5239999999999998
 20
-73.475999999999999
 30
0.0
 11
1935.7074901230374
 21
0.0
 31
0.0
 12
0.0
 22
1935.7074901230374
 32
0.0
 13
1.0
 23
1.0
340
0
 70
               7
280
               1
281
              50
282
              50
283
               0
360
0
 71
               2
 91
        5
 14
-0.5
 24
0.4248708801603303
 14
0.5
 24
0.4248708801603303
 14
0.5
 24
0.5
 14
-0.5
 24
0.5
 14
-0.5
 24
0.4248708801603303
  0
LWPOLYLINE
  5
53
100
AcDbEntity
  8
0
370
              15
  6
Continuous
 62
               7
100
AcDbPolyline
 90
       79
 70
             128
 10
0.0
 20
-75.0
 42
0.5568826053827928
 10
41.385602972216439
 20
-8.1858772992591611
 10
33.240531263285
 20
8.1858772992591611
 42
-0.5568826053827928
 10
74.626134235501439
 20
75.0
 42
-0.5568826053827926
 10
116.01173720771789
 20
8.1858772992591611
 10
107.86666549878643
 20
-8.1858772992591469
 42
0.5568826053827926
 10
149.25226847100288
 20
-75.0
 42
0.5568826053827926
 10
190.63787144321932
 20
-8.1858772992591611
 10
182.49279973428787
 20
8.1858772992591753
 42
-0.5568826053827928
 10
223.87840270650432
 20
75.0
 42
-0.5568826053827928
 10
265.26400567872076
 20
8.1858772992591611
 10
257.11893396978928
 20
-8.1858772992591327
 42
0.556882605382792
 10
298.50453694200576
 20
-75.0
 42
0.5568826053827926
 10
339.89013991422223
 20
-8.1858772992591327
 10
331.74506820529075
 20
8.1858772992591753
 42
-0.5568826053827926
 10
373.13067117750722
 20
75.0
 42
-0.5568826053827926
 10
414.5162741497237
 20
8.1858772992591753
 10
406.37120244079222
 20
-8.1858772992591895
 42
0.5568826053827923
 10
447.75680541300864
 20
-75.0
 42
0.5568826053827928
 10
489.14240838522505
 20
-8.1858772992591895
 10
480.99733667629357
 20
8.1858772992591327
 42
-0.5568826053827928
 10
522.38293964851005
 20
75.0
 42
-0.5568826053827932
 10
563.76854262072652
 20
8.1858772992591327
 10
555.62347091179504
 20
-8.1858772992591327
 42
0.5568826053827919
 10
597.00907388401151
 20
-75.0
 42
0.5568826053827923
 10
638.39467685622799
 20
-8.1858772992591327
 10
630.24960514729651
 20
8.1858772992591327
 42
-0.5568826053827923
 10
671.63520811951298
 20
75.0
 42
-0.5568826053827934
 10
713.02081109172946
 20
8.1858772992591327
 10
704.87573938279797
 20
-8.1858772992591327
 42
0.5568826053827916
 10
746.26134235501445
 20
-75.0
 42
0.5568826053827928
 10
787.64694532723092
 20
-8.1858772992591327
 10
779.50187361829944
 20
8.1858772992591327
 42
-0.5568826053827928
 10
820.88747659051592
 20
75.0
 42
-0.5568826053827923
 10
862.27307956273239
 20
8.1858772992591327
 10
854.12800785380091
 20
-8.1858772992591327
 42
0.5568826053827928
 10
895.51361082601738
 20
-75.0
 42
0.5568826053827928
 10
936.89921379823386
 20
-8.1858772992591327
 10
928.75414208930238
 20
8.1858772992591327
 42
-0.5568826053827928
 10
970.13974506151885
 20
75.0
 42
-0.5568826053827932
 10
1011.5253480337353
 20
8.1858772992591327
 10
1003.3802763248038
 20
-8.1858772992591327
 42
0.5568826053827928
 10
1044.7658792970203
 20
-75.0
 42
0.556882605382792
 10
1086.1514822692368
 20
-8.1858772992591327
 10
1078.0064105603053
 20
8.1858772992591327
 42
-0.5568826053827928
 10
1119.3920135325218
 20
75.0
 42
-0.5568826053827943
 10
1160.7776165047383
 20
8.1858772992591327
 10
1152.6325447958068
 20
-8.1858772992591327
 42
0.5568826053827928
 10
1194.0181477680233
 20
-75.0
 42
0.5568826053827928
 10
1235.4037507402397
 20
-8.1858772992591327
 10
1227.2586790313082
 20
8.1858772992591327
 42
-0.556882605382792
 10
1268.6442820035247
 20
75.0
 42
-0.5568826053827943
 10
1310.0298849757412
 20
8.1858772992591327
 10
1301.8848132668097
 20
-8.1858772992591327
 42
0.5568826053827928
 10
1343.2704162390262
 20
-75.0
 42
0.5568826053827928
 10
1384.6560192112427
 20
-8.1858772992591327
 10
1376.5109475023112
 20
8.1858772992591327
 42
-0.5568826053827928
 10
1417.8965504745277
 20
75.0
 42
-0.556882605382792
 10
1459.2821534467441
 20
8.1858772992591327
 10
1451.1370817378127
 20
-8.1858772992591327
 42
0.5568826053827904
 10
1492.5226847100291
 20
-75.0
 42
0.5568826053827928
 10
1533.9082876822456
 20
-8.1858772992591327
 10
1525.7632159733141
 20
8.1858772992591327
 42
-0.5568826053827928
 10
1567.1488189455306
 20
75.0
 42
-0.5568826053827943
 10
1608.5344219177471
 20
8.1858772992591327
 10
1600.3893502088156
 20
-8.1858772992591327
 42
0.5568826053827911
 10
1641.7749531810321
 20
-75.0
 42
0.556882605382792
 10
1683.1605561532485
 20
-8.1858772992591327
 10
1675.0154844443171
 20
8.1858772992591327
 42
-0.5568826053827928
 10
1716.4010874165335
 20
75.0
 42
-0.5568826053827943
 10
1757.78669038875
 20
8.1858772992591327
 10
1749.6416186798185
 20
-8.1858772992591327
 42
0.5568826053827911
 10
1791.027221652035
 20
-75.0
 42
0.5568826053827928
 10
1832.4128246242515
 20
-8.1858772992591327
 10
1824.26775291532
 20
8.1858772992591327
 42
-0.5568826053827928
 10
1865.6533558875365
 20
75.0
 42
-0.5568826053827928
 10
1907.0389588597529
 20
8.1858772992591327
 10
1898.8938871508215
 20
-8.1858772992591327
 42
0.5568826053827911
 10
1940.2794901230379
 20
-75.0
 42
0.5568826053827911
  0
ENDBLK
  5
54
100
AcDbEntity
  8
舞台機構
100
AcDbBlockEnd
  0
BLOCK
  5
55
100
AcDbEntity
  8
舞台機構
100
AcDbBlockBegin
  2
Batt Insulation-6
 70
               2
 10
0.0
 20
0.0
 30
0.0
  3
Batt Insulation-6
  1

  0
WIPEOUT
  5
56
100
AcDbEntity
  8
0
370
              15
  6
Continuous
 62
               7
 92
        0
100
AcDbWipeout
 90
        0
 10
1.5239999999999998
 20
-73.475999999999999
 30
0.0
 11
1935.7074901230374
 21
0.0
 31
0.0
 12
0.0
 22
1935.7074901230374
 32
0.0
 13
1.0
 23
1.0
340
0
 70
               7
280
               1
281
              50
282
              50
283
               0
360
0
 71
               2
 91
        5
 14
-0.5
 24
0.4248708801603303
 14
0.5
 24
0.4248708801603303
 14
0.5
 24
0.5
 14
-0.5
 24
0.5
 14
-0.5
 24
0.4248708801603303
  0
LWPOLYLINE
  5
57
100
AcDbEntity
  8
0
370
              15
  6
Continuous
 62
               7
100
AcDbPolyline
 90
       79
 70
             128
 10
0.0
 20
-75.0
 42
0.5568826053827928
 10
41.385602972216439
 20
-8.1858772992591611
 10
33.240531263285
 20
8.1858772992591611
 42
-0.5568826053827928
 10
74.626134235501439
 20
75.0
 42
-0.5568826053827926
 10
116.01173720771789
 20
8.1858772992591611
 10
107.86666549878643
 20
-8.1858772992591469
 42
0.5568826053827926
 10
149.25226847100288
 20
-75.0
 42
0.5568826053827926
 10
190.63787144321932
 20
-8.1858772992591611
 10
182.49279973428787
 20
8.1858772992591753
 42
-0.5568826053827928
 10
223.87840270650432
 20
75.0
 42
-0.5568826053827928
 10
265.26400567872076
 20
8.1858772992591611
 10
257.11893396978928
 20
-8.1858772992591327
 42
0.556882605382792
 10
298.50453694200576
 20
-75.0
 42
0.5568826053827926
 10
339.89013991422223
 20
-8.1858772992591327
 10
331.74506820529075
 20
8.1858772992591753
 42
-0.5568826053827926
 10
373.13067117750722
 20
75.0
 42
-0.5568826053827926
 10
414.5162741497237
 20
8.1858772992591753
 10
406.37120244079222
 20
-8.1858772992591895
 42
0.5568826053827923
 10
447.75680541300864
 20
-75.0
 42
0.5568826053827928
 10
489.14240838522505
 20
-8.1858772992591895
 10
480.99733667629357
 20
8.1858772992591327
 42
-0.5568826053827928
 10
522.38293964851005
 20
75.0
 42
-0.5568826053827932
 10
563.76854262072652
 20
8.1858772992591327
 10
555.62347091179504
 20
-8.1858772992591327
 42
0.5568826053827919
 10
597.00907388401151
 20
-75.0
 42
0.5568826053827923
 10
638.39467685622799
 20
-8.1858772992591327
 10
630.24960514729651
 20
8.1858772992591327
 42
-0.5568826053827923
 10
671.63520811951298
 20
75.0
 42
-0.5568826053827934
 10
713.02081109172946
 20
8.1858772992591327
 10
704.87573938279797
 20
-8.1858772992591327
 42
0.5568826053827916
 10
746.26134235501445
 20
-75.0
 42
0.5568826053827928
 10
787.64694532723092
 20
-8.1858772992591327
 10
779.50187361829944
 20
8.1858772992591327
 42
-0.5568826053827928
 10
820.88747659051592
 20
75.0
 42
-0.5568826053827923
 10
862.27307956273239
 20
8.1858772992591327
 10
854.12800785380091
 20
-8.1858772992591327
 42
0.5568826053827928
 10
895.51361082601738
 20
-75.0
 42
0.5568826053827928
 10
936.89921379823386
 20
-8.1858772992591327
 10
928.75414208930238
 20
8.1858772992591327
 42
-0.5568826053827928
 10
970.13974506151885
 20
75.0
 42
-0.5568826053827932
 10
1011.5253480337353
 20
8.1858772992591327
 10
1003.3802763248038
 20
-8.1858772992591327
 42
0.5568826053827928
 10
1044.7658792970203
 20
-75.0
 42
0.556882605382792
 10
1086.1514822692368
 20
-8.1858772992591327
 10
1078.0064105603053
 20
8.1858772992591327
 42
-0.5568826053827928
 10
1119.3920135325218
 20
75.0
 42
-0.5568826053827943
 10
1160.7776165047383
 20
8.1858772992591327
 10
1152.6325447958068
 20
-8.1858772992591327
 42
0.5568826053827928
 10
1194.0181477680233
 20
-75.0
 42
0.5568826053827928
 10
1235.4037507402397
 20
-8.1858772992591327
 10
1227.2586790313082
 20
8.1858772992591327
 42
-0.556882605382792
 10
1268.6442820035247
 20
75.0
 42
-0.5568826053827943
 10
1310.0298849757412
 20
8.1858772992591327
 10
1301.8848132668097
 20
-8.1858772992591327
 42
0.5568826053827928
 10
1343.2704162390262
 20
-75.0
 42
0.5568826053827928
 10
1384.6560192112427
 20
-8.1858772992591327
 10
1376.5109475023112
 20
8.1858772992591327
 42
-0.5568826053827928
 10
1417.8965504745277
 20
75.0
 42
-0.556882605382792
 10
1459.2821534467441
 20
8.1858772992591327
 10
1451.1370817378127
 20
-8.1858772992591327
 42
0.5568826053827904
 10
1492.5226847100291
 20
-75.0
 42
0.5568826053827928
 10
1533.9082876822456
 20
-8.1858772992591327
 10
1525.7632159733141
 20
8.1858772992591327
 42
-0.5568826053827928
 10
1567.1488189455306
 20
75.0
 42
-0.5568826053827943
 10
1608.5344219177471
 20
8.1858772992591327
 10
1600.3893502088156
 20
-8.1858772992591327
 42
0.5568826053827911
 10
1641.7749531810321
 20
-75.0
 42
0.556882605382792
 10
1683.1605561532485
 20
-8.1858772992591327
 10
1675.0154844443171
 20
8.1858772992591327
 42
-0.5568826053827928
 10
1716.4010874165335
 20
75.0
 42
-0.5568826053827943
 10
1757.78669038875
 20
8.1858772992591327
 10
1749.6416186798185
 20
-8.1858772992591327
 42
0.5568826053827911
 10
1791.027221652035
 20
-75.0
 42
0.5568826053827928
 10
1832.4128246242515
 20
-8.1858772992591327
 10
1824.26775291532
 20
8.1858772992591327
 42
-0.5568826053827928
 10
1865.6533558875365
 20
75.0
 42
-0.5568826053827928
 10
1907.0389588597529
 20
8.1858772992591327
 10
1898.8938871508215
 20
-8.1858772992591327
 42
0.5568826053827911
 10
1940.2794901230379
 20
-75.0
 42
0.5568826053827911
  0
ENDBLK
  5
58
100
AcDbEntity
  8
舞台機構
100
AcDbBlockEnd
  0
BLOCK
  5
59
100
AcDbEntity
  8
舞台機構
100
AcDbBlockBegin
  2
Batt Insulation-7
 70
               2
 10
0.0
 20
0.0
 30
0.0
  3
Batt Insulation-7
  1

  0
WIPEOUT
  5
5A
100
AcDbEntity
  8
0
370
              15
  6
Continuous
 62
               7
 92
        0
100
AcDbWipeout
 90
        0
 10
1.5239999999999998
 20
-73.475999999999999
 30
0.0
 11
1935.7074901230374
 21
0.0
 31
0.0
 12
0.0
 22
1935.7074901230374
 32
0.0
 13
1.0
 23
1.0
340
0
 70
               7
280
               1
281
              50
282
              50
283
               0
360
0
 71
               2
 91
        5
 14
-0.5
 24
0.4248708801603303
 14
0.5
 24
0.4248708801603303
 14
0.5
 24
0.5
 14
-0.5
 24
0.5
 14
-0.5
 24
0.4248708801603303
  0
LWPOLYLINE
  5
5B
100
AcDbEntity
  8
0
370
              15
  6
Continuous
 62
               7
100
AcDbPolyline
 90
       79
 70
             128
 10
0.0
 20
-75.0
 42
0.5568826053827928
 10
41.385602972216439
 20
-8.1858772992591611
 10
33.240531263285
 20
8.1858772992591611
 42
-0.5568826053827928
 10
74.626134235501439
 20
75.0
 42
-0.5568826053827926
 10
116.01173720771789
 20
8.1858772992591611
 10
107.86666549878643
 20
-8.1858772992591469
 42
0.5568826053827926
 10
149.25226847100288
 20
-75.0
 42
0.5568826053827926
 10
190.63787144321932
 20
-8.1858772992591611
 10
182.49279973428787
 20
8.1858772992591753
 42
-0.5568826053827928
 10
223.87840270650432
 20
75.0
 42
-0.5568826053827928
 10
265.26400567872076
 20
8.1858772992591611
 10
257.11893396978928
 20
-8.1858772992591327
 42
0.556882605382792
 10
298.50453694200576
 20
-75.0
 42
0.5568826053827926
 10
339.89013991422223
 20
-8.1858772992591327
 10
331.74506820529075
 20
8.1858772992591753
 42
-0.5568826053827926
 10
373.13067117750722
 20
75.0
 42
-0.5568826053827926
 10
414.5162741497237
 20
8.1858772992591753
 10
406.37120244079222
 20
-8.1858772992591895
 42
0.5568826053827923
 10
447.75680541300864
 20
-75.0
 42
0.5568826053827928
 10
489.14240838522505
 20
-8.1858772992591895
 10
480.99733667629357
 20
8.1858772992591327
 42
-0.5568826053827928
 10
522.38293964851005
 20
75.0
 42
-0.5568826053827932
 10
563.76854262072652
 20
8.1858772992591327
 10
555.62347091179504
 20
-8.1858772992591327
 42
0.5568826053827919
 10
597.00907388401151
 20
-75.0
 42
0.5568826053827923
 10
638.39467685622799
 20
-8.1858772992591327
 10
630.24960514729651
 20
8.1858772992591327
 42
-0.5568826053827923
 10
671.63520811951298
 20
75.0
 42
-0.5568826053827934
 10
713.02081109172946
 20
8.1858772992591327
 10
704.87573938279797
 20
-8.1858772992591327
 42
0.5568826053827916
 10
746.26134235501445
 20
-75.0
 42
0.5568826053827928
 10
787.64694532723092
 20
-8.1858772992591327
 10
779.50187361829944
 20
8.1858772992591327
 42
-0.5568826053827928
 10
820.88747659051592
 20
75.0
 42
-0.5568826053827923
 10
862.27307956273239
 20
8.1858772992591327
 10
854.12800785380091
 20
-8.1858772992591327
 42
0.5568826053827928
 10
895.51361082601738
 20
-75.0
 42
0.5568826053827928
 10
936.89921379823386
 20
-8.1858772992591327
 10
928.75414208930238
 20
8.1858772992591327
 42
-0.5568826053827928
 10
970.13974506151885
 20
75.0
 42
-0.5568826053827932
 10
1011.5253480337353
 20
8.1858772992591327
 10
1003.3802763248038
 20
-8.1858772992591327
 42
0.5568826053827928
 10
1044.7658792970203
 20
-75.0
 42
0.556882605382792
 10
1086.1514822692368
 20
-8.1858772992591327
 10
1078.0064105603053
 20
8.1858772992591327
 42
-0.5568826053827928
 10
1119.3920135325218
 20
75.0
 42
-0.5568826053827943
 10
1160.7776165047383
 20
8.1858772992591327
 10
1152.6325447958068
 20
-8.1858772992591327
 42
0.5568826053827928
 10
1194.0181477680233
 20
-75.0
 42
0.5568826053827928
 10
1235.4037507402397
 20
-8.1858772992591327
 10
1227.2586790313082
 20
8.1858772992591327
 42
-0.556882605382792
 10
1268.6442820035247
 20
75.0
 42
-0.5568826053827943
 10
1310.0298849757412
 20
8.1858772992591327
 10
1301.8848132668097
 20
-8.1858772992591327
 42
0.5568826053827928
 10
1343.2704162390262
 20
-75.0
 42
0.5568826053827928
 10
1384.6560192112427
 20
-8.1858772992591327
 10
1376.5109475023112
 20
8.1858772992591327
 42
-0.5568826053827928
 10
1417.8965504745277
 20
75.0
 42
-0.556882605382792
 10
1459.2821534467441
 20
8.1858772992591327
 10
1451.1370817378127
 20
-8.1858772992591327
 42
0.5568826053827904
 10
1492.5226847100291
 20
-75.0
 42
0.5568826053827928
 10
1533.9082876822456
 20
-8.1858772992591327
 10
1525.7632159733141
 20
8.1858772992591327
 42
-0.5568826053827928
 10
1567.1488189455306
 20
75.0
 42
-0.5568826053827943
 10
1608.5344219177471
 20
8.1858772992591327
 10
1600.3893502088156
 20
-8.1858772992591327
 42
0.5568826053827911
 10
1641.7749531810321
 20
-75.0
 42
0.556882605382792
 10
1683.1605561532485
 20
-8.1858772992591327
 10
1675.0154844443171
 20
8.1858772992591327
 42
-0.5568826053827928
 10
1716.4010874165335
 20
75.0
 42
-0.5568826053827943
 10
1757.78669038875
 20
8.1858772992591327
 10
1749.6416186798185
 20
-8.1858772992591327
 42
0.5568826053827911
 10
1791.027221652035
 20
-75.0
 42
0.5568826053827928
 10
1832.4128246242515
 20
-8.1858772992591327
 10
1824.26775291532
 20
8.1858772992591327
 42
-0.5568826053827928
 10
1865.6533558875365
 20
75.0
 42
-0.5568826053827928
 10
1907.0389588597529
 20
8.1858772992591327
 10
1898.8938871508215
 20
-8.1858772992591327
 42
0.5568826053827911
 10
1940.2794901230379
 20
-75.0
 42
0.5568826053827911
  0
ENDBLK
  5
5C
100
AcDbEntity
  8
舞台機構
100
AcDbBlockEnd
  0
BLOCK
  5
5D
100
AcDbEntity
  8
舞台機構
100
AcDbBlockBegin
  2
Batt Insulation-8
 70
               2
 10
0.0
 20
0.0
 30
0.0
  3
Batt Insulation-8
  1

  0
WIPEOUT
  5
5E
100
AcDbEntity
  8
0
370
              15
  6
Continuous
 62
               7
 92
        0
100
AcDbWipeout
 90
        0
 10
1.5239999999999998
 20
-73.475999999999999
 30
0.0
 11
1935.7074901230374
 21
0.0
 31
0.0
 12
0.0
 22
1935.7074901230374
 32
0.0
 13
1.0
 23
1.0
340
0
 70
               7
280
               1
281
              50
282
              50
283
               0
360
0
 71
               2
 91
        5
 14
-0.5
 24
0.4248708801603303
 14
0.5
 24
0.4248708801603303
 14
0.5
 24
0.5
 14
-0.5
 24
0.5
 14
-0.5
 24
0.4248708801603303
  0
LWPOLYLINE
  5
5F
100
AcDbEntity
  8
0
370
              15
  6
Continuous
 62
               7
100
AcDbPolyline
 90
       79
 70
             128
 10
0.0
 20
-75.0
 42
0.5568826053827928
 10
41.385602972216439
 20
-8.1858772992591611
 10
33.240531263285
 20
8.1858772992591611
 42
-0.5568826053827928
 10
74.626134235501439
 20
75.0
 42
-0.5568826053827926
 10
116.01173720771789
 20
8.1858772992591611
 10
107.86666549878643
 20
-8.1858772992591469
 42
0.5568826053827926
 10
149.25226847100288
 20
-75.0
 42
0.5568826053827926
 10
190.63787144321932
 20
-8.1858772992591611
 10
182.49279973428787
 20
8.1858772992591753
 42
-0.5568826053827928
 10
223.87840270650432
 20
75.0
 42
-0.5568826053827928
 10
265.26400567872076
 20
8.1858772992591611
 10
257.11893396978928
 20
-8.1858772992591327
 42
0.556882605382792
 10
298.50453694200576
 20
-75.0
 42
0.5568826053827926
 10
339.89013991422223
 20
-8.1858772992591327
 10
331.74506820529075
 20
8.1858772992591753
 42
-0.5568826053827926
 10
373.13067117750722
 20
75.0
 42
-0.5568826053827926
 10
414.5162741497237
 20
8.1858772992591753
 10
406.37120244079222
 20
-8.1858772992591895
 42
0.5568826053827923
 10
447.75680541300864
 20
-75.0
 42
0.5568826053827928
 10
489.14240838522505
 20
-8.1858772992591895
 10
480.99733667629357
 20
8.1858772992591327
 42
-0.5568826053827928
 10
522.38293964851005
 20
75.0
 42
-0.5568826053827932
 10
563.76854262072652
 20
8.1858772992591327
 10
555.62347091179504
 20
-8.1858772992591327
 42
0.5568826053827919
 10
597.00907388401151
 20
-75.0
 42
0.5568826053827923
 10
638.39467685622799
 20
-8.1858772992591327
 10
630.24960514729651
 20
8.1858772992591327
 42
-0.5568826053827923
 10
671.63520811951298
 20
75.0
 42
-0.5568826053827934
 10
713.02081109172946
 20
8.1858772992591327
 10
704.87573938279797
 20
-8.1858772992591327
 42
0.5568826053827916
 10
746.26134235501445
 20
-75.0
 42
0.5568826053827928
 10
787.64694532723092
 20
-8.1858772992591327
 10
779.50187361829944
 20
8.1858772992591327
 42
-0.5568826053827928
 10
820.88747659051592
 20
75.0
 42
-0.5568826053827923
 10
862.27307956273239
 20
8.1858772992591327
 10
854.12800785380091
 20
-8.1858772992591327
 42
0.5568826053827928
 10
895.51361082601738
 20
-75.0
 42
0.5568826053827928
 10
936.89921379823386
 20
-8.1858772992591327
 10
928.75414208930238
 20
8.1858772992591327
 42
-0.5568826053827928
 10
970.13974506151885
 20
75.0
 42
-0.5568826053827932
 10
1011.5253480337353
 20
8.1858772992591327
 10
1003.3802763248038
 20
-8.1858772992591327
 42
0.5568826053827928
 10
1044.7658792970203
 20
-75.0
 42
0.556882605382792
 10
1086.1514822692368
 20
-8.1858772992591327
 10
1078.0064105603053
 20
8.1858772992591327
 42
-0.5568826053827928
 10
1119.3920135325218
 20
75.0
 42
-0.5568826053827943
 10
1160.7776165047383
 20
8.1858772992591327
 10
1152.6325447958068
 20
-8.1858772992591327
 42
0.5568826053827928
 10
1194.0181477680233
 20
-75.0
 42
0.5568826053827928
 10
1235.4037507402397
 20
-8.1858772992591327
 10
1227.2586790313082
 20
8.1858772992591327
 42
-0.556882605382792
 10
1268.6442820035247
 20
75.0
 42
-0.5568826053827943
 10
1310.0298849757412
 20
8.1858772992591327
 10
1301.8848132668097
 20
-8.1858772992591327
 42
0.5568826053827928
 10
1343.2704162390262
 20
-75.0
 42
0.5568826053827928
 10
1384.6560192112427
 20
-8.1858772992591327
 10
1376.5109475023112
 20
8.1858772992591327
 42
-0.5568826053827928
 10
1417.8965504745277
 20
75.0
 42
-0.556882605382792
 10
1459.2821534467441
 20
8.1858772992591327
 10
1451.1370817378127
 20
-8.1858772992591327
 42
0.5568826053827904
 10
1492.5226847100291
 20
-75.0
 42
0.5568826053827928
 10
1533.9082876822456
 20
-8.1858772992591327
 10
1525.7632159733141
 20
8.1858772992591327
 42
-0.5568826053827928
 10
1567.1488189455306
 20
75.0
 42
-0.5568826053827943
 10
1608.5344219177471
 20
8.1858772992591327
 10
1600.3893502088156
 20
-8.1858772992591327
 42
0.5568826053827911
 10
1641.7749531810321
 20
-75.0
 42
0.556882605382792
 10
1683.1605561532485
 20
-8.1858772992591327
 10
1675.0154844443171
 20
8.1858772992591327
 42
-0.5568826053827928
 10
1716.4010874165335
 20
75.0
 42
-0.5568826053827943
 10
1757.78669038875
 20
8.1858772992591327
 10
1749.6416186798185
 20
-8.1858772992591327
 42
0.5568826053827911
 10
1791.027221652035
 20
-75.0
 42
0.5568826053827928
 10
1832.4128246242515
 20
-8.1858772992591327
 10
1824.26775291532
 20
8.1858772992591327
 42
-0.5568826053827928
 10
1865.6533558875365
 20
75.0
 42
-0.5568826053827928
 10
1907.0389588597529
 20
8.1858772992591327
 10
1898.8938871508215
 20
-8.1858772992591327
 42
0.5568826053827911
 10
1940.2794901230379
 20
-75.0
 42
0.5568826053827911
  0
ENDBLK
  5
60
100
AcDbEntity
  8
舞台機構
100
AcDbBlockEnd
  0
ENDSEC
  0
SECTION
  2
ENTITIES
  0
LINE
  5
61
100
AcDbEntity
  8
躯体
370
              30
  6
Continuous
 62
               7
100
AcDbLine
 10
-9255.2486233031377
 20
-6866.2555922173196
 30
0.0
 11
8734.7513766968623
 21
-6866.2555922173196
 31
0.0
  0
LINE
  5
62
100
AcDbEntity
  8
躯体
370
              30
  6
Continuous
 62
               7
100
AcDbLine
 10
-9505.2593348866794
 20
7703.741616900079
 30
0.0
 11
-10405.256079259212
 21
7703.741616900079
 31
0.0
  0
LINE
  5
63
100
AcDbEntity
  8
躯体
370
              30
  6
Continuous
 62
               7
100
AcDbLine
 10
-10405.256079259212
 20
7703.741616900079
 30
0.0
 11
-10405.256079259212
 21
8603.737124073552
 31
0.0
  0
LINE
  5
64
100
AcDbEntity
  8
躯体
370
              30
  6
Continuous
 62
               7
100
AcDbLine
 10
-10405.256079259212
 20
8603.737124073552
 30
0.0
 11
-9505.2593348866794
 21
8603.737124073552
 31
0.0
  0
LINE
  5
65
100
AcDbEntity
  8
躯体
370
              30
  6
Continuous
 62
               7
100
AcDbLine
 10
-9505.2593348866794
 20
8603.737124073552
 30
0.0
 11
-9505.2593348866794
 21
7703.741616900079
 31
0.0
  0
LINE
  5
66
100
AcDbEntity
  8
躯体
370
              30
  6
Continuous
 62
               7
100
AcDbLine
 10
9894.7617660518736
 20
7703.741616900079
 30
0.0
 11
8994.7637844802812
 21
7703.741616900079
 31
0.0
  0
LINE
  5
67
100
AcDbEntity
  8
躯体
370
              30
  6
Continuous
 62
               7
100
AcDbLine
 10
8994.7637844802812
 20
7703.741616900079
 30
0.0
 11
8994.7637844802812
 21
8603.737124073552
 31
0.0
  0
LINE
  5
68
100
AcDbEntity
  8
躯体
370
              30
  6
Continuous
 62
               7
100
AcDbLine
 10
8994.7637844802812
 20
8603.737124073552
 30
0.0
 11
9894.7617660518736
 21
8603.737124073552
 31
0.0
  0
LINE
  5
69
100
AcDbEntity
  8
躯体
370
              30
  6
Continuous
 62
               7
100
AcDbLine
 10
9894.7617660518736
 20
8603.737124073552
 30
0.0
 11
9894.7617660518736
 21
7703.741616900079
 31
0.0
  0
LINE
  5
6A
100
AcDbEntity
  8
躯体
370
              30
  6
Continuous
 62
               7
100
AcDbLine
 10
8994.7637844802812
 20
7921.3154435367323
 30
0.0
 11
-9505.2593348866794
 21
7921.3154435367323
 31
0.0
  0
LINE
  5
6B
100
AcDbEntity
  8
躯体
370
              30
  6
Continuous
 62
               7
100
AcDbLine
 10
-9505.2593348866794
 20
7921.3154435367323
 30
0.0
 11
-9505.2593348866794
 21
7721.3296387325972
 31
0.0
  0
LINE
  5
6C
100
AcDbEntity
  8
躯体
370
              30
  6
Continuous
 62
               7
100
AcDbLine
 10
-9505.2593348866794
 20
7721.3296387325972
 30
0.0
 11
8994.7637844802812
 21
7721.3296387325972
 31
0.0
  0
LINE
  5
6D
100
AcDbEntity
  8
躯体
370
              30
  6
Continuous
 62
               7
100
AcDbLine
 10
8994.7637844802812
 20
7721.3296387325972
 30
0.0
 11
8994.7637844802812
 21
7921.3154435367323
 31
0.0
  0
LINE
  5
6E
100
AcDbEntity
  8
躯体
370
              30
  6
Continuous
 62
               7
100
AcDbLine
 10
-9255.2486233031377
 20
-6396.2411950438982
 30
0.0
 11
-9255.2486233031377
 21
-7766.2523365898523
 31
0.0
  0
LINE
  5
6F
100
AcDbEntity
  8
躯体
370
              30
  6
Continuous
 62
               7
100
AcDbLine
 10
-9255.2486233031377
 20
-7766.2523365898523
 30
0.0
 11
-10195.242776076309
 21
-10190.703802026081
 31
0.0
  0
LINE
  5
70
100
AcDbEntity
  8
躯体
370
              30
  6
Continuous
 62
               7
100
AcDbLine
 10
-10195.242776076309
 20
-10190.703802026081
 30
0.0
 11
-10195.242776076309
 21
-10896.259249180468
 31
0.0
  0
LINE
  5
71
100
AcDbEntity
  8
躯体
370
              30
  6
Continuous
 62
               7
100
AcDbLine
 10
-10195.242776076309
 20
-10896.259249180468
 30
0.0
 11
-10405.256079259212
 21
-10896.259249180468
 31
0.0
  0
LINE
  5
72
100
AcDbEntity
  8
躯体
370
              30
  6
Continuous
 62
               7
100
AcDbLine
 10
-10405.256079259212
 20
-10896.259249180468
 30
0.0
 11
-10405.256079259212
 21
-6846.2395672301645
 31
0.0
  0
LINE
  5
73
100
AcDbEntity
  8
躯体
370
              30
  6
Continuous
 62
               7
100
AcDbLine
 10
-10405.256079259212
 20
-6846.2395672301645
 30
0.0
 11
-9720.2498898867052
 21
-6846.2395672301645
 31
0.0
  0
LINE
  5
74
100
AcDbEntity
  8
躯体
370
              30
  6
Continuous
 62
               7
100
AcDbLine
 10
-9720.2498898867052
 20
-6846.2395672301645
 30
0.0
 11
-9720.2498898867052
 21
-6396.2411950438982
 31
0.0
  0
LINE
  5
75
100
AcDbEntity
  8
躯体
370
              30
  6
Continuous
 62
               7
100
AcDbLine
 10
-9720.2498898867052
 20
-6396.2411950438982
 30
0.0
 11
-9255.2486233031377
 21
-6396.2411950438982
 31
0.0
  0
LINE
  5
76
100
AcDbEntity
  8
躯体
370
              30
  6
Continuous
 62
               7
100
AcDbLine
 10
8734.7513766968623
 20
-6396.4967872612178
 30
0.0
 11
8734.7513766968623
 21
-7766.507928807172
 31
0.0
  0
LINE
  5
77
100
AcDbEntity
  8
躯体
370
              30
  6
Continuous
 62
               7
100
AcDbLine
 10
8734.7513766968623
 20
-7766.507928807172
 30
0.0
 11
9674.7801710437052
 21
-10190.9593942434
 31
0.0
  0
LINE
  5
78
100
AcDbEntity
  8
躯体
370
              30
  6
Continuous
 62
               7
100
AcDbLine
 10
9674.7801710437052
 20
-10190.9593942434
 30
0.0
 11
9674.7801710437052
 21
-10896.514841397788
 31
0.0
  0
LINE
  5
79
100
AcDbEntity
  8
躯体
370
              30
  6
Continuous
 62
               7
100
AcDbLine
 10
9674.7801710437052
 20
-10896.514841397788
 30
0.0
 11
9884.7922370275483
 21
-10896.514841397788
 31
0.0
  0
LINE
  5
7A
100
AcDbEntity
  8
躯体
370
              30
  6
Continuous
 62
               7
100
AcDbLine
 10
9884.7922370275483
 20
-10896.514841397788
 30
0.0
 11
9884.7922370275483
 21
-6846.4951594474842
 31
0.0
  0
LINE
  5
7B
100
AcDbEntity
  8
躯体
370
              30
  6
Continuous
 62
               7
100
AcDbLine
 10
9884.7922370275483
 20
-6846.4951594474842
 30
0.0
 11
9199.7699640672654
 21
-6846.4951594474842
 31
0.0
  0
LINE
  5
7C
100
AcDbEntity
  8
躯体
370
              30
  6
Continuous
 62
               7
100
AcDbLine
 10
9199.7699640672654
 20
-6846.4951594474842
 30
0.0
 11
9199.7699640672654
 21
-6396.4967872612178
 31
0.0
  0
LINE
  5
7D
100
AcDbEntity
  8
躯体
370
              30
  6
Continuous
 62
               7
100
AcDbLine
 10
9199.7699640672654
 20
-6396.4967872612178
 30
0.0
 11
8734.7513766968623
 21
-6396.4967872612178
 31
0.0
  0
LINE
  5
7E
100
AcDbEntity
  8
躯体
370
              30
  6
Continuous
 62
               7
100
AcDbLine
 10
-14559.885581202572
 20
-7246.2495300092851
 30
0.0
 11
-14559.885581202572
 21
-7546.2486509999726
 31
0.0
  0
LINE
  5
7F
100
AcDbEntity
  8
躯体
370
              30
  6
Continuous
 62
               7
100
AcDbLine
 10
-14559.885581202572
 20
-7546.2486509999726
 30
0.0
 11
-12639.744598773599
 21
-7546.2486509999726
 31
0.0
  0
LINE
  5
80
100
AcDbEntity
  8
躯体
370
              30
  6
Continuous
 62
               7
100
AcDbLine
 10
-12639.744598773599
 20
-7546.2486509999726
 30
0.0
 11
-12639.744598773599
 21
-10896.259249180468
 31
0.0
  0
LINE
  5
81
100
AcDbEntity
  8
躯体
370
              30
  6
Continuous
 62
               7
100
AcDbLine
 10
-12639.744598773599
 20
-10896.259249180468
 30
0.0
 11
-12339.745477782912
 21
-10896.259249180468
 31
0.0
  0
LINE
  5
82
100
AcDbEntity
  8
躯体
370
              30
  6
Continuous
 62
               7
100
AcDbLine
 10
-12339.745477782912
 20
-10896.259249180468
 30
0.0
 11
-12339.745477782912
 21
-7246.2495300092851
 31
0.0
  0
LINE
  5
83
100
AcDbEntity
  8
躯体
370
              30
  6
Continuous
 62
               7
100
AcDbLine
 10
-12339.745477782912
 20
-7246.2495300092851
 30
0.0
 11
-14559.885581202572
 21
-7246.2495300092851
 31
0.0
  0
LINE
  5
84
100
AcDbEntity
  8
躯体
370
              30
  6
Continuous
 62
               7
100
AcDbLine
 10
-14559.885581202572
 20
-7246.2495300092851
 30
0.0
 11
-14559.885581202572
 21
-7546.2486509999726
 31
0.0
  0
LINE
  5
85
100
AcDbEntity
  8
躯体
370
              30
  6
Continuous
 62
               7
100
AcDbLine
 10
-14559.885581202572
 20
-7546.2486509999726
 30
0.0
 11
-12639.744598773599
 21
-7546.2486509999726
 31
0.0
  0
LINE
  5
86
100
AcDbEntity
  8
躯体
370
              30
  6
Continuous
 62
               7
100
AcDbLine
 10
-12639.744598773599
 20
-7546.2486509999726
 30
0.0
 11
-12639.744598773599
 21
-10896.259249180468
 31
0.0
  0
LINE
  5
87
100
AcDbEntity
  8
躯体
370
              30
  6
Continuous
 62
               7
100
AcDbLine
 10
-12639.744598773599
 20
-10896.259249180468
 30
0.0
 11
-12339.745477782912
 21
-10896.259249180468
 31
0.0
  0
LINE
  5
88
100
AcDbEntity
  8
躯体
370
              30
  6
Continuous
 62
               7
100
AcDbLine
 10
-12339.745477782912
 20
-10896.259249180468
 30
0.0
 11
-12339.745477782912
 21
-7246.2495300092851
 31
0.0
  0
LINE
  5
89
100
AcDbEntity
  8
躯体
370
              30
  6
Continuous
 62
               7
100
AcDbLine
 10
-12339.745477782912
 20
-7246.2495300092851
 30
0.0
 11
-14559.885581202572
 21
-7246.2495300092851
 31
0.0
  0
LINE
  5
8A
100
AcDbEntity
  8
躯体
370
              30
  6
Continuous
 62
               7
100
AcDbLine
 10
-15575.241240298492
 20
8279.830987052992
 30
0.0
 11
-15575.241240298492
 21
8608.1489759203978
 31
0.0
  0
LINE
  5
8B
100
AcDbEntity
  8
躯体
370
              30
  6
Continuous
 62
               7
100
AcDbLine
 10
-15575.241240298492
 20
8608.1489759203978
 30
0.0
 11
-16475.23829397079
 21
8608.1489759203978
 31
0.0
  0
LINE
  5
8C
100
AcDbEntity
  8
躯体
370
              30
  6
Continuous
 62
               7
100
AcDbLine
 10
-16475.23829397079
 20
8608.1489759203978
 30
0.0
 11
-16475.23829397079
 21
-10887.129648019269
 31
0.0
  0
LINE
  5
8D
100
AcDbEntity
  8
躯体
370
              30
  6
Continuous
 62
               7
100
AcDbLine
 10
-16475.23829397079
 20
-10887.129648019269
 30
0.0
 11
-16175.256493766938
 21
-10887.129648019269
 31
0.0
  0
LINE
  5
8E
100
AcDbEntity
  8
躯体
370
              30
  6
Continuous
 62
               7
100
AcDbLine
 10
-16175.256493766938
 20
-10887.129648019269
 30
0.0
 11
-16175.256493766938
 21
-7746.2363116026972
 31
0.0
  0
LINE
  5
8F
100
AcDbEntity
  8
躯体
370
              30
  6
Continuous
 62
               7
100
AcDbLine
 10
-16175.256493766938
 20
-7746.2363116026972
 30
0.0
 11
-15575.241240298492
 21
-7746.2363116026972
 31
0.0
  0
LINE
  5
90
100
AcDbEntity
  8
躯体
370
              30
  6
Continuous
 62
               7
100
AcDbLine
 10
-15575.241240298492
 20
-7746.2363116026972
 30
0.0
 11
-15575.241240298492
 21
-6846.2395672301645
 31
0.0
  0
LINE
  5
91
100
AcDbEntity
  8
躯体
370
              30
  6
Continuous
 62
               7
100
AcDbLine
 10
-15575.241240298492
 20
-6846.2395672301645
 30
0.0
 11
-16175.239172980102
 21
-6846.2395672301645
 31
0.0
  0
LINE
  5
92
100
AcDbEntity
  8
躯体
370
              30
  6
Continuous
 62
               7
100
AcDbLine
 10
-16175.239172980102
 20
-6846.2395672301645
 30
0.0
 11
-16175.239172980102
 21
-4696.2245251131244
 31
0.0
  0
LINE
  5
93
100
AcDbEntity
  8
躯体
370
              30
  6
Continuous
 62
               7
100
AcDbLine
 10
-16175.239172980102
 20
-4696.2245251131244
 30
0.0
 11
-15575.241240298492
 21
-4696.2245251131244
 31
0.0
  0
LINE
  5
94
100
AcDbEntity
  8
躯体
370
              30
  6
Continuous
 62
               7
100
AcDbLine
 10
-15575.241240298492
 20
-4696.2245251131244
 30
0.0
 11
-15575.241240298492
 21
-3796.2277807405917
 31
0.0
  0
LINE
  5
95
100
AcDbEntity
  8
躯体
370
              30
  6
Continuous
 62
               7
100
AcDbLine
 10
-15575.241240298492
 20
-3796.2277807405917
 30
0.0
 11
-16175.239172980102
 21
-3796.2277807405917
 31
0.0
  0
LINE
  5
96
100
AcDbEntity
  8
躯体
370
              30
  6
Continuous
 62
               7
100
AcDbLine
 10
-16175.239172980102
 20
-3796.2277807405917
 30
0.0
 11
-16175.239172980102
 21
2208.1256633510347
 31
0.0
  0
LINE
  5
97
100
AcDbEntity
  8
躯体
370
              30
  6
Continuous
 62
               7
100
AcDbLine
 10
-16175.239172980102
 20
2208.1256633510347
 30
0.0
 11
-15575.241240298492
 21
2208.1256633510347
 31
0.0
  0
LINE
  5
98
100
AcDbEntity
  8
躯体
370
              30
  6
Continuous
 62
               7
100
AcDbLine
 10
-15575.241240298492
 20
2208.1256633510347
 30
0.0
 11
-15575.241240298492
 21
3108.1224077235674
 31
0.0
  0
LINE
  5
99
100
AcDbEntity
  8
躯体
370
              30
  6
Continuous
 62
               7
100
AcDbLine
 10
-15575.241240298492
 20
3108.1224077235674
 30
0.0
 11
-16175.239172980102
 21
3108.1224077235674
 31
0.0
  0
LINE
  5
9A
100
AcDbEntity
  8
躯体
370
              30
  6
Continuous
 62
               7
100
AcDbLine
 10
-16175.239172980102
 20
3108.1224077235674
 30
0.0
 11
-16175.239172980102
 21
7708.1509943488054
 31
0.0
  0
LINE
  5
9B
100
AcDbEntity
  8
躯体
370
              30
  6
Continuous
 62
               7
100
AcDbLine
 10
-16175.239172980102
 20
7708.1509943488054
 30
0.0
 11
-15575.241240298492
 21
7708.1509943488054
 31
0.0
  0
LINE
  5
9C
100
AcDbEntity
  8
躯体
370
              30
  6
Continuous
 62
               7
100
AcDbLine
 10
-15575.241240298492
 20
7708.1509943488054
 30
0.0
 11
-15575.241240298492
 21
7974.0770346361678
 31
0.0
  0
LINE
  5
9D
100
AcDbEntity
  8
躯体
370
              30
  6
Continuous
 62
               7
100
AcDbLine
 10
-15575.241240298492
 20
7974.0770346361678
 30
0.0
 11
-12515.239071401942
 21
7974.0770346361678
 31
0.0
  0
LINE
  5
9E
100
AcDbEntity
  8
躯体
370
              30
  6
Continuous
 62
               7
100
AcDbLine
 10
-12515.239071401942
 20
7974.0770346361678
 30
0.0
 11
-12515.239071401942
 21
8279.830987052992
 31
0.0
  0
LINE
  5
9F
100
AcDbEntity
  8
躯体
370
              30
  6
Continuous
 62
               7
100
AcDbLine
 10
-12515.239071401942
 20
8279.830987052992
 30
0.0
 11
-15575.241240298492
 21
8279.830987052992
 31
0.0
  0
LINE
  5
A0
100
AcDbEntity
  8
躯体
370
              30
  6
Continuous
 62
               7
100
AcDbLine
 10
-15575.241240298492
 20
8279.830987052992
 30
0.0
 11
-15575.241240298492
 21
8608.1489759203978
 31
0.0
  0
LINE
  5
A1
100
AcDbEntity
  8
躯体
370
              30
  6
Continuous
 62
               7
100
AcDbLine
 10
-15575.241240298492
 20
8608.1489759203978
 30
0.0
 11
-16475.23829397079
 21
8608.1489759203978
 31
0.0
  0
LINE
  5
A2
100
AcDbEntity
  8
躯体
370
              30
  6
Continuous
 62
               7
100
AcDbLine
 10
-16475.23829397079
 20
8608.1489759203978
 30
0.0
 11
-16475.23829397079
 21
-10887.129648019269
 31
0.0
  0
LINE
  5
A3
100
AcDbEntity
  8
躯体
370
              30
  6
Continuous
 62
               7
100
AcDbLine
 10
-16475.23829397079
 20
-10887.129648019269
 30
0.0
 11
-16175.256493766938
 21
-10887.129648019269
 31
0.0
  0
LINE
  5
A4
100
AcDbEntity
  8
躯体
370
              30
  6
Continuous
 62
               7
100
AcDbLine
 10
-16175.256493766938
 20
-10887.129648019269
 30
0.0
 11
-16175.256493766938
 21
-7746.2363116026972
 31
0.0
  0
LINE
  5
A5
100
AcDbEntity
  8
躯体
370
              30
  6
Continuous
 62
               7
100
AcDbLine
 10
-16175.256493766938
 20
-7746.2363116026972
 30
0.0
 11
-15575.241240298492
 21
-7746.2363116026972
 31
0.0
  0
LINE
  5
A6
100
AcDbEntity
  8
躯体
370
              30
  6
Continuous
 62
               7
100
AcDbLine
 10
-15575.241240298492
 20
-7746.2363116026972
 30
0.0
 11
-15575.241240298492
 21
-6846.2395672301645
 31
0.0
  0
LINE
  5
A7
100
AcDbEntity
  8
躯体
370
              30
  6
Continuous
 62
               7
100
AcDbLine
 10
-15575.241240298492
 20
-6846.2395672301645
 30
0.0
 11
-16175.239172980102
 21
-6846.2395672301645
 31
0.0
  0
LINE
  5
A8
100
AcDbEntity
  8
躯体
370
              30
  6
Continuous
 62
               7
100
AcDbLine
 10
-16175.239172980102
 20
-6846.2395672301645
 30
0.0
 11
-16175.239172980102
 21
-4696.2245251131244
 31
0.0
  0
LINE
  5
A9
100
AcDbEntity
  8
躯体
370
              30
  6
Continuous
 62
               7
100
AcDbLine
 10
-16175.239172980102
 20
-4696.2245251131244
 30
0.0
 11
-15575.241240298492
 21
-4696.2245251131244
 31
0.0
  0
LINE
  5
AA
100
AcDbEntity
  8
躯体
370
              30
  6
Continuous
 62
               7
100
AcDbLine
 10
-15575.241240298492
 20
-4696.2245251131244
 30
0.0
 11
-15575.241240298492
 21
-3796.2277807405917
 31
0.0
  0
LINE
  5
AB
100
AcDbEntity
  8
躯体
370
              30
  6
Continuous
 62
               7
100
AcDbLine
 10
-15575.241240298492
 20
-3796.2277807405917
 30
0.0
 11
-16175.239172980102
 21
-3796.2277807405917
 31
0.0
  0
LINE
  5
AC
100
AcDbEntity
  8
躯体
370
              30
  6
Continuous
 62
               7
100
AcDbLine
 10
-16175.239172980102
 20
-3796.2277807405917
 30
0.0
 11
-16175.239172980102
 21
2208.1256633510347
 31
0.0
  0
LINE
  5
AD
100
AcDbEntity
  8
躯体
370
              30
  6
Continuous
 62
               7
100
AcDbLine
 10
-16175.239172980102
 20
2208.1256633510347
 30
0.0
 11
-15575.241240298492
 21
2208.1256633510347
 31
0.0
  0
LINE
  5
AE
100
AcDbEntity
  8
躯体
370
              30
  6
Continuous
 62
               7
100
AcDbLine
 10
-15575.241240298492
 20
2208.1256633510347
 30
0.0
 11
-15575.241240298492
 21
3108.1224077235674
 31
0.0
  0
LINE
  5
AF
100
AcDbEntity
  8
躯体
370
              30
  6
Continuous
 62
               7
100
AcDbLine
 10
-15575.241240298492
 20
3108.1224077235674
 30
0.0
 11
-16175.239172980102
 21
3108.1224077235674
 31
0.0
  0
LINE
  5
B0
100
AcDbEntity
  8
躯体
370
              30
  6
Continuous
 62
               7
100
AcDbLine
 10
-16175.239172980102
 20
3108.1224077235674
 30
0.0
 11
-16175.239172980102
 21
7708.1509943488054
 31
0.0
  0
LINE
  5
B1
100
AcDbEntity
  8
躯体
370
              30
  6
Continuous
 62
               7
100
AcDbLine
 10
-16175.239172980102
 20
7708.1509943488054
 30
0.0
 11
-15575.241240298492
 21
7708.1509943488054
 31
0.0
  0
LINE
  5
B2
100
AcDbEntity
  8
躯体
370
              30
  6
Continuous
 62
               7
100
AcDbLine
 10
-15575.241240298492
 20
7708.1509943488054
 30
0.0
 11
-15575.241240298492
 21
7974.0770346361678
 31
0.0
  0
LINE
  5
B3
100
AcDbEntity
  8
躯体
370
              30
  6
Continuous
 62
               7
100
AcDbLine
 10
-15575.241240298492
 20
7974.0770346361678
 30
0.0
 11
-12515.239071401942
 21
7974.0770346361678
 31
0.0
  0
LINE
  5
B4
100
AcDbEntity
  8
躯体
370
              30
  6
Continuous
 62
               7
100
AcDbLine
 10
-12515.239071401942
 20
7974.0770346361678
 30
0.0
 11
-12515.239071401942
 21
8279.830987052992
 31
0.0
  0
LINE
  5
B5
100
AcDbEntity
  8
躯体
370
              30
  6
Continuous
 62
               7
100
AcDbLine
 10
-12515.239071401942
 20
8279.830987052992
 30
0.0
 11
-15575.241240298492
 21
8279.830987052992
 31
0.0
  0
LINE
  5
B6
100
AcDbEntity
  8
躯体
370
              30
  6
Continuous
 62
               7
100
AcDbLine
 10
12754.742869971087
 20
-7246.2495300092851
 30
0.0
 11
12754.742869971087
 21
-6841.8301897814381
 31
0.0
  0
LINE
  5
B7
100
AcDbEntity
  8
躯体
370
              30
  6
Continuous
 62
               7
100
AcDbLine
 10
12754.742869971087
 20
-6841.8301897814381
 30
0.0
 11
11854.744888399495
 21
-6841.8301897814381
 31
0.0
  0
LINE
  5
B8
100
AcDbEntity
  8
躯体
370
              30
  6
Continuous
 62
               7
100
AcDbLine
 10
11854.744888399495
 20
-6841.8301897814381
 30
0.0
 11
11854.744888399495
 21
-10891.849562431977
 31
0.0
  0
LINE
  5
B9
100
AcDbEntity
  8
躯体
370
              30
  6
Continuous
 62
               7
100
AcDbLine
 10
11854.744888399495
 20
-10891.849562431977
 30
0.0
 11
12154.743390790652
 21
-10891.849562431977
 31
0.0
  0
LINE
  5
BA
100
AcDbEntity
  8
躯体
370
              30
  6
Continuous
 62
               7
100
AcDbLine
 10
12154.743390790652
 20
-10891.849562431977
 30
0.0
 11
12154.743390790652
 21
-7741.8269341539708
 31
0.0
  0
LINE
  5
BB
100
AcDbEntity
  8
躯体
370
              30
  6
Continuous
 62
               7
100
AcDbLine
 10
12154.743390790652
 20
-7741.8269341539708
 30
0.0
 11
12754.742869971087
 21
-7741.8269341539708
 31
0.0
  0
LINE
  5
BC
100
AcDbEntity
  8
躯体
370
              30
  6
Continuous
 62
               7
100
AcDbLine
 10
12754.742869971087
 20
-7741.8269341539708
 30
0.0
 11
12754.742869971087
 21
-7546.2486509999726
 31
0.0
  0
LINE
  5
BD
100
AcDbEntity
  8
躯体
370
              30
  6
Continuous
 62
               7
100
AcDbLine
 10
12754.742869971087
 20
-7546.2486509999726
 30
0.0
 11
15909.209517271491
 21
-7546.2486509999726
 31
0.0
  0
LINE
  5
BE
100
AcDbEntity
  8
躯体
370
              30
  6
Continuous
 62
               7
100
AcDbLine
 10
15909.209517271491
 20
-7546.2486509999726
 30
0.0
 11
15909.209517271491
 21
-7246.2495300092851
 31
0.0
  0
LINE
  5
BF
100
AcDbEntity
  8
躯体
370
              30
  6
Continuous
 62
               7
100
AcDbLine
 10
15909.209517271491
 20
-7246.2495300092851
 30
0.0
 11
12754.742869971087
 21
-7246.2495300092851
 31
0.0
  0
LINE
  5
C0
100
AcDbEntity
  8
躯体
370
              30
  6
Continuous
 62
               7
100
AcDbLine
 10
12754.742869971087
 20
-7246.2495300092851
 30
0.0
 11
12754.742869971087
 21
-6841.8301897814381
 31
0.0
  0
LINE
  5
C1
100
AcDbEntity
  8
躯体
370
              30
  6
Continuous
 62
               7
100
AcDbLine
 10
12754.742869971087
 20
-6841.8301897814381
 30
0.0
 11
11854.744888399495
 21
-6841.8301897814381
 31
0.0
  0
LINE
  5
C2
100
AcDbEntity
  8
躯体
370
              30
  6
Continuous
 62
               7
100
AcDbLine
 10
11854.744888399495
 20
-6841.8301897814381
 30
0.0
 11
11854.744888399495
 21
-10891.849562431977
 31
0.0
  0
LINE
  5
C3
100
AcDbEntity
  8
躯体
370
              30
  6
Continuous
 62
               7
100
AcDbLine
 10
11854.744888399495
 20
-10891.849562431977
 30
0.0
 11
12154.743390790652
 21
-10891.849562431977
 31
0.0
  0
LINE
  5
C4
100
AcDbEntity
  8
躯体
370
              30
  6
Continuous
 62
               7
100
AcDbLine
 10
12154.743390790652
 20
-10891.849562431977
 30
0.0
 11
12154.743390790652
 21
-7741.8269341539708
 31
0.0
  0
LINE
  5
C5
100
AcDbEntity
  8
躯体
370
              30
  6
Continuous
 62
               7
100
AcDbLine
 10
12154.743390790652
 20
-7741.8269341539708
 30
0.0
 11
12754.742869971087
 21
-7741.8269341539708
 31
0.0
  0
LINE
  5
C6
100
AcDbEntity
  8
躯体
370
              30
  6
Continuous
 62
               7
100
AcDbLine
 10
12754.742869971087
 20
-7741.8269341539708
 30
0.0
 11
12754.742869971087
 21
-7546.2486509999726
 31
0.0
  0
LINE
  5
C7
100
AcDbEntity
  8
躯体
370
              30
  6
Continuous
 62
               7
100
AcDbLine
 10
12754.742869971087
 20
-7546.2486509999726
 30
0.0
 11
15909.209517271491
 21
-7546.2486509999726
 31
0.0
  0
LINE
  5
C8
100
AcDbEntity
  8
躯体
370
              30
  6
Continuous
 62
               7
100
AcDbLine
 10
15909.209517271491
 20
-7546.2486509999726
 30
0.0
 11
15909.209517271491
 21
-7246.2495300092851
 31
0.0
  0
LINE
  5
C9
100
AcDbEntity
  8
躯体
370
              30
  6
Continuous
 62
               7
100
AcDbLine
 10
15909.209517271491
 20
-7246.2495300092851
 30
0.0
 11
12754.742869971087
 21
-7246.2495300092851
 31
0.0
  0
LINE
  5
CA
100
AcDbEntity
  8
躯体
370
              30
  6
Continuous
 62
               7
100
AcDbLine
 10
15904.800139822764
 20
8274.0780114254449
 30
0.0
 11
12754.742869971087
 21
8274.0780114254449
 31
0.0
  0
LINE
  5
CB
100
AcDbEntity
  8
躯体
370
              30
  6
Continuous
 62
               7
100
AcDbLine
 10
12754.742869971087
 20
8274.0780114254449
 30
0.0
 11
12754.742869971087
 21
8608.1662967072334
 31
0.0
  0
LINE
  5
CC
100
AcDbEntity
  8
躯体
370
              30
  6
Continuous
 62
               7
100
AcDbLine
 10
12754.742869971087
 20
8608.1662967072334
 30
0.0
 11
11854.744888399495
 21
8608.1662967072334
 31
0.0
  0
LINE
  5
CD
100
AcDbEntity
  8
躯体
370
              30
  6
Continuous
 62
               7
100
AcDbLine
 10
11854.744888399495
 20
8608.1662967072334
 30
0.0
 11
11854.744888399495
 21
7708.168315135641
 31
0.0
  0
LINE
  5
CE
100
AcDbEntity
  8
躯体
370
              30
  6
Continuous
 62
               7
100
AcDbLine
 10
11854.744888399495
 20
7708.168315135641
 30
0.0
 11
12754.742869971087
 21
7708.168315135641
 31
0.0
  0
LINE
  5
CF
100
AcDbEntity
  8
躯体
370
              30
  6
Continuous
 62
               7
100
AcDbLine
 10
12754.742869971087
 20
7708.168315135641
 30
0.0
 11
12754.742869971087
 21
7974.0770346361678
 31
0.0
  0
LINE
  5
D0
100
AcDbEntity
  8
躯体
370
              30
  6
Continuous
 62
               7
100
AcDbLine
 10
12754.742869971087
 20
7974.0770346361678
 30
0.0
 11
15904.800139822764
 21
7974.0770346361678
 31
0.0
  0
LINE
  5
D1
100
AcDbEntity
  8
躯体
370
              30
  6
Continuous
 62
               7
100
AcDbLine
 10
15904.800139822764
 20
7974.0770346361678
 30
0.0
 11
15904.800139822764
 21
8274.0780114254449
 31
0.0
  0
LINE
  5
D2
100
AcDbEntity
  8
躯体
370
              30
  6
Continuous
 62
               7
100
AcDbLine
 10
15904.800139822764
 20
8274.0780114254449
 30
0.0
 11
12754.742869971087
 21
8274.0780114254449
 31
0.0
  0
LINE
  5
D3
100
AcDbEntity
  8
躯体
370
              30
  6
Continuous
 62
               7
100
AcDbLine
 10
12754.742869971087
 20
8274.0780114254449
 30
0.0
 11
12754.742869971087
 21
8608.1662967072334
 31
0.0
  0
LINE
  5
D4
100
AcDbEntity
  8
躯体
370
              30
  6
Continuous
 62
               7
100
AcDbLine
 10
12754.742869971087
 20
8608.1662967072334
 30
0.0
 11
11854.744888399495
 21
8608.1662967072334
 31
0.0
  0
LINE
  5
D5
100
AcDbEntity
  8
躯体
370
              30
  6
Continuous
 62
               7
100
AcDbLine
 10
11854.744888399495
 20
8608.1662967072334
 30
0.0
 11
11854.744888399495
 21
7708.168315135641
 31
0.0
  0
LINE
  5
D6
100
AcDbEntity
  8
躯体
370
              30
  6
Continuous
 62
               7
100
AcDbLine
 10
11854.744888399495
 20
7708.168315135641
 30
0.0
 11
12754.742869971087
 21
7708.168315135641
 31
0.0
  0
LINE
  5
D7
100
AcDbEntity
  8
躯体
370
              30
  6
Continuous
 62
               7
100
AcDbLine
 10
12754.742869971087
 20
7708.168315135641
 30
0.0
 11
12754.742869971087
 21
7974.0770346361678
 31
0.0
  0
LINE
  5
D8
100
AcDbEntity
  8
躯体
370
              30
  6
Continuous
 62
               7
100
AcDbLine
 10
12754.742869971087
 20
7974.0770346361678
 30
0.0
 11
15904.800139822764
 21
7974.0770346361678
 31
0.0
  0
LINE
  5
D9
100
AcDbEntity
  8
躯体
370
              30
  6
Continuous
 62
               7
100
AcDbLine
 10
15904.800139822764
 20
7974.0770346361678
 30
0.0
 11
15904.800139822764
 21
8274.0780114254449
 31
0.0
  0
LINE
  5
DA
100
AcDbEntity
  8
グリッド
370
               5
  6
STYLE_01
 62
               4
100
AcDbLine
 10
-260.24862330313772
 20
-7207.4312557416852
 30
0.0
 11
-260.24862330313772
 21
8197.1909552329453
 31
0.0
  0
LINE
  5
DB
100
AcDbEntity
  8
グリッド
370
               5
  6
STYLE_01
 62
               4
100
AcDbLine
 10
1539.7448654419277
 20
-6419.9856028265785
 30
0.0
 11
1539.7448654419277
 21
7679.9972091173986
 31
0.0
  0
LINE
  5
DC
100
AcDbEntity
  8
グリッド
370
               5
  6
STYLE_01
 62
               4
100
AcDbLine
 10
3339.7729957606643
 20
-6419.9856028265785
 30
0.0
 11
3339.7729957606643
 21
7679.9972091173986
 31
0.0
  0
LINE
  5
DD
100
AcDbEntity
  8
グリッド
370
               5
  6
STYLE_01
 62
               4
100
AcDbLine
 10
5139.7664845057297
 20
-6419.9856028265785
 30
0.0
 11
5139.7664845057297
 21
7679.9972091173986
 31
0.0
  0
LINE
  5
DE
100
AcDbEntity
  8
グリッド
370
               5
  6
STYLE_01
 62
               4
100
AcDbLine
 10
6939.7599732507952
 20
-6419.9856028265785
 30
0.0
 11
6939.7599732507952
 21
7679.9972091173986
 31
0.0
  0
LINE
  5
DF
100
AcDbEntity
  8
グリッド
370
               5
  6
STYLE_01
 62
               4
100
AcDbLine
 10
8739.7534619958606
 20
-6419.9856028265785
 30
0.0
 11
8739.7534619958606
 21
7679.9972091173986
 31
0.0
  0
LINE
  5
E0
100
AcDbEntity
  8
グリッド
370
               5
  6
STYLE_01
 62
               4
100
AcDbLine
 10
-9260.250708602136
 20
-6419.9856028265785
 30
0.0
 11
-9260.250708602136
 21
7679.9972091173986
 31
0.0
  0
LINE
  5
E1
100
AcDbEntity
  8
グリッド
370
               5
  6
STYLE_01
 62
               4
100
AcDbLine
 10
-7460.2225782833993
 20
-6419.9856028265785
 30
0.0
 11
-7460.2225782833993
 21
7679.9972091173986
 31
0.0
  0
LINE
  5
E2
100
AcDbEntity
  8
グリッド
370
               5
  6
STYLE_01
 62
               4
100
AcDbLine
 10
-5660.2290895383339
 20
-6419.9856028265785
 30
0.0
 11
-5660.2290895383339
 21
7679.9972091173986
 31
0.0
  0
LINE
  5
E3
100
AcDbEntity
  8
グリッド
370
               5
  6
STYLE_01
 62
               4
100
AcDbLine
 10
-3860.2356007932685
 20
-6419.9856028265785
 30
0.0
 11
-3860.2356007932685
 21
7679.9972091173986
 31
0.0
  0
LINE
  5
E4
100
AcDbEntity
  8
グリッド
370
               5
  6
STYLE_01
 62
               4
100
AcDbLine
 10
-2060.2421120482031
 20
-6419.9856028265785
 30
0.0
 11
-2060.2421120482031
 21
7679.9972091173986
 31
0.0
  0
LINE
  5
E5
100
AcDbEntity
  8
グリッド
370
               5
  6
STYLE_01
 62
               4
100
AcDbLine
 10
-9260.250708602136
 20
-6419.9856028265785
 30
0.0
 11
8739.7534619958606
 21
-6419.9856028265785
 31
0.0
  0
LINE
  5
E6
100
AcDbEntity
  8
グリッド
370
               5
  6
STYLE_01
 62
               4
100
AcDbLine
 10
-9260.250708602136
 20
-4619.9921140815131
 30
0.0
 11
8739.7534619958606
 21
-4619.9921140815131
 31
0.0
  0
LINE
  5
E7
100
AcDbEntity
  8
グリッド
370
               5
  6
STYLE_01
 62
               4
100
AcDbLine
 10
-9260.250708602136
 20
-2819.9986253364477
 30
0.0
 11
8739.7534619958606
 21
-2819.9986253364477
 31
0.0
  0
LINE
  5
E8
100
AcDbEntity
  8
グリッド
370
               5
  6
STYLE_01
 62
               4
100
AcDbLine
 10
-9260.250708602136
 20
-1019.9704950177111
 30
0.0
 11
8739.7534619958606
 21
-1019.9704950177111
 31
0.0
  0
LINE
  5
E9
100
AcDbEntity
  8
グリッド
370
               5
  6
STYLE_01
 62
               4
100
AcDbLine
 10
-9260.250708602136
 20
780.02299372735433
 30
0.0
 11
8739.7534619958606
 21
780.02299372735433
 31
0.0
  0
LINE
  5
EA
100
AcDbEntity
  8
グリッド
370
               5
  6
STYLE_01
 62
               4
100
AcDbLine
 10
-9260.250708602136
 20
2580.0152452733601
 30
0.0
 11
8739.7534619958606
 21
2580.0152452733601
 31
0.0
  0
LINE
  5
EB
100
AcDbEntity
  8
グリッド
370
               5
  6
STYLE_01
 62
               4
100
AcDbLine
 10
-9260.250708602136
 20
4380.0087340184255
 30
0.0
 11
8739.7534619958606
 21
4380.0087340184255
 31
0.0
  0
LINE
  5
EC
100
AcDbEntity
  8
グリッド
370
               5
  6
STYLE_01
 62
               4
100
AcDbLine
 10
-9260.250708602136
 20
6180.0195435503265
 30
0.0
 11
8739.7534619958606
 21
6180.0195435503265
 31
0.0
  0
LINE
  5
ED
100
AcDbEntity
  8
舞台機構
370
              15
  6
Continuous
 62
               7
100
AcDbLine
 10
10116.418349585496
 20
6886.3588397381827
 30
0.0
 11
12056.697839708533
 21
6886.3588397381827
 31
0.0
  0
LINE
  5
EE
100
AcDbEntity
  8
舞台機構
370
              15
  6
Continuous
 62
               7
100
AcDbLine
 10
10116.418349585496
 20
6586.4964292435907
 30
0.0
 11
12056.697839708533
 21
6586.4964292435907
 31
0.0
  0
LINE
  5
EF
100
AcDbEntity
  8
舞台機構
370
              15
  6
Continuous
 62
               7
100
AcDbLine
 10
10116.418349585496
 20
4981.3580808021361
 30
0.0
 11
12056.697839708533
 21
4981.3580808021361
 31
0.0
  0
LINE
  5
F0
100
AcDbEntity
  8
舞台機構
370
              15
  6
Continuous
 62
               7
100
AcDbLine
 10
10116.418349585496
 20
3790.7333797165193
 30
0.0
 11
12056.697839708533
 21
3790.7333797165193
 31
0.0
  0
LINE
  5
F1
100
AcDbEntity
  8
舞台機構
370
              15
  6
Continuous
 62
               7
100
AcDbLine
 10
10116.418349585496
 20
2988.1635868962621
 30
0.0
 11
12056.697839708533
 21
2988.1635868962621
 31
0.0
  0
LINE
  5
F2
100
AcDbEntity
  8
舞台機構
370
              15
  6
Continuous
 62
               7
100
AcDbLine
 10
10116.418349585496
 20
2344.3449914198136
 30
0.0
 11
12056.697839708533
 21
2344.3449914198136
 31
0.0
  0
LINE
  5
F3
100
AcDbEntity
  8
舞台機構
370
              15
  6
Continuous
 62
               7
100
AcDbLine
 10
10116.418349585496
 20
1859.2751188890543
 30
0.0
 11
12056.697839708533
 21
1859.2751188890543
 31
0.0
  0
LINE
  5
F4
100
AcDbEntity
  8
舞台機構
370
              15
  6
Continuous
 62
               7
100
AcDbLine
 10
10116.418349585496
 20
1403.76440629235
 30
0.0
 11
12056.697839708533
 21
1403.76440629235
 31
0.0
  0
LINE
  5
F5
100
AcDbEntity
  8
舞台機構
370
              15
  6
Continuous
 62
               7
100
AcDbLine
 10
10116.418349585496
 20
-6139.96035862586
 30
0.0
 11
12056.697839708533
 21
-6139.96035862586
 31
0.0
  0
LINE
  5
F6
100
AcDbEntity
  8
舞台機構
370
              15
  6
Continuous
 62
               7
100
AcDbLine
 10
10116.418349585496
 20
6348.372726225527
 30
0.0
 11
12056.697839708533
 21
6348.372726225527
 31
0.0
  0
LINE
  5
F7
100
AcDbEntity
  8
舞台機構
370
              15
  6
Continuous
 62
               7
100
AcDbLine
 10
10116.418349585496
 20
6101.4277939118911
 30
0.0
 11
12056.697839708533
 21
6101.4277939118911
 31
0.0
  0
LINE
  5
F8
100
AcDbEntity
  8
舞台機構
370
              15
  6
Continuous
 62
               7
100
AcDbLine
 10
10116.418349585496
 20
5854.4828615982551
 30
0.0
 11
12056.697839708533
 21
5854.4828615982551
 31
0.0
  0
LINE
  5
F9
100
AcDbEntity
  8
舞台機構
370
              15
  6
Continuous
 62
               7
100
AcDbLine
 10
10116.418349585496
 20
5598.7191743871663
 30
0.0
 11
12056.697839708533
 21
5598.7191743871663
 31
0.0
  0
LINE
  5
FA
100
AcDbEntity
  8
舞台機構
370
              15
  6
Continuous
 62
               7
100
AcDbLine
 10
10116.418349585496
 20
4284.6220071447315
 30
0.0
 11
12056.697839708533
 21
4284.6220071447315
 31
0.0
  0
LINE
  5
FB
100
AcDbEntity
  8
舞台機構
370
              15
  6
Continuous
 62
               7
100
AcDbLine
 10
10116.418349585496
 20
4028.8583199336426
 30
0.0
 11
12056.697839708533
 21
4028.8583199336426
 31
0.0
  0
LINE
  5
FC
100
AcDbEntity
  8
舞台機構
370
              15
  6
Continuous
 62
               7
100
AcDbLine
 10
10116.418349585496
 20
3385.0384872581344
 30
0.0
 11
12056.697839708533
 21
3385.0384872581344
 31
0.0
  0
LINE
  5
FD
100
AcDbEntity
  8
舞台機構
370
              15
  6
Continuous
 62
               7
100
AcDbLine
 10
10116.418349585496
 20
615.73293962248135
 30
0.0
 11
12056.697839708533
 21
615.73293962248135
 31
0.0
  0
LINE
  5
FE
100
AcDbEntity
  8
舞台機構
370
              15
  6
Continuous
 62
               7
100
AcDbLine
 10
10116.418349585496
 20
368.7892445079051
 30
0.0
 11
12056.697839708533
 21
368.7892445079051
 31
0.0
  0
LINE
  5
FF
100
AcDbEntity
  8
舞台機構
370
              15
  6
Continuous
 62
               7
100
AcDbLine
 10
10116.418349585496
 20
-1836.0714505246142
 30
0.0
 11
12056.697839708533
 21
-1836.0714505246142
 31
0.0
  0
LINE
  5
100
100
AcDbEntity
  8
舞台機構
370
              15
  6
Continuous
 62
               7
100
AcDbLine
 10
10116.418349585496
 20
-2083.0163828382501
 30
0.0
 11
12056.697839708533
 21
-2083.0163828382501
 31
0.0
  0
LINE
  5
101
100
AcDbEntity
  8
舞台機構
370
              15
  6
Continuous
 62
               7
100
AcDbLine
 10
10116.418349585496
 20
-2329.9613151518861
 30
0.0
 11
12056.697839708533
 21
-2329.9613151518861
 31
0.0
  0
LINE
  5
102
100
AcDbEntity
  8
舞台機構
370
              15
  6
Continuous
 62
               7
100
AcDbLine
 10
10116.418349585496
 20
-2550.447508375044
 30
0.0
 11
12056.697839708533
 21
-2550.447508375044
 31
0.0
  0
LINE
  5
103
100
AcDbEntity
  8
舞台機構
370
              15
  6
Continuous
 62
               7
100
AcDbLine
 10
10116.418349585496
 20
-2806.2111955861328
 30
0.0
 11
12056.697839708533
 21
-2806.2111955861328
 31
0.0
  0
LINE
  5
104
100
AcDbEntity
  8
舞台機構
370
              15
  6
Continuous
 62
               7
100
AcDbLine
 10
10125.239578881068
 20
-4931.6969105462776
 30
0.0
 11
12065.516594605986
 21
-4931.6969105462776
 31
0.0
  0
LINE
  5
105
100
AcDbEntity
  8
舞台機構
370
              15
  6
Continuous
 62
               7
100
AcDbLine
 10
10125.239578881068
 20
-5169.821850763401
 30
0.0
 11
12065.516594605986
 21
-5169.821850763401
 31
0.0
  0
LINE
  5
106
100
AcDbEntity
  8
舞台機構
370
              15
  6
Continuous
 62
               7
100
AcDbLine
 10
10125.239578881068
 20
-5381.4886704895762
 30
0.0
 11
12065.516594605986
 21
-5381.4886704895762
 31
0.0
  0
LINE
  5
107
100
AcDbEntity
  8
舞台機構
370
              15
  6
Continuous
 62
               7
100
AcDbLine
 10
12056.697839708533
 20
-910.03042874659877
 30
0.0
 11
10098.78083979059
 21
-910.03042874659877
 31
0.0
  0
LINE
  5
108
100
AcDbEntity
  8
舞台機構
370
              15
  6
Continuous
 62
               7
100
AcDbLine
 10
10098.78083979059
 20
-910.03042874659877
 30
0.0
 11
10098.78083979059
 21
-301.48932725808118
 31
0.0
  0
LINE
  5
109
100
AcDbEntity
  8
舞台機構
370
              15
  6
Continuous
 62
               7
100
AcDbLine
 10
10098.78083979059
 20
-301.48932725808118
 30
0.0
 11
12056.697839708533
 21
-301.48932725808118
 31
0.0
  0
LINE
  5
10A
100
AcDbEntity
  8
舞台機構
370
              15
  6
Continuous
 62
               7
100
AcDbLine
 10
12056.697839708533
 20
-301.48932725808118
 30
0.0
 11
12056.697839708533
 21
-910.03042874659877
 31
0.0
  0
LINE
  5
10B
100
AcDbEntity
  8
舞台機構
370
              15
  6
Continuous
 62
               7
100
AcDbLine
 10
10098.78083979059
 20
-424.96055621583946
 30
0.0
 11
12056.697839708533
 21
-424.96055621583946
 31
0.0
  0
LINE
  5
10C
100
AcDbEntity
  8
舞台機構
370
              15
  6
Continuous
 62
               7
100
AcDbLine
 10
10098.78083979059
 20
-777.73920769232791
 30
0.0
 11
12056.697839708533
 21
-777.73920769232791
 31
0.0
  0
LINE
  5
10D
100
AcDbEntity
  8
舞台機構
370
              15
  6
Continuous
 62
               7
100
AcDbLine
 10
12056.697839708533
 20
-4085.029631641577
 30
0.0
 11
10098.78083979059
 21
-4085.029631641577
 31
0.0
  0
LINE
  5
10E
100
AcDbEntity
  8
舞台機構
370
              15
  6
Continuous
 62
               7
100
AcDbLine
 10
10098.78083979059
 20
-4085.029631641577
 30
0.0
 11
10098.78083979059
 21
-3476.4885301530594
 31
0.0
  0
LINE
  5
10F
100
AcDbEntity
  8
舞台機構
370
              15
  6
Continuous
 62
               7
100
AcDbLine
 10
10098.78083979059
 20
-3476.4885301530594
 30
0.0
 11
12056.697839708533
 21
-3476.4885301530594
 31
0.0
  0
LINE
  5
110
100
AcDbEntity
  8
舞台機構
370
              15
  6
Continuous
 62
               7
100
AcDbLine
 10
12056.697839708533
 20
-3476.4885301530594
 30
0.0
 11
12056.697839708533
 21
-4085.029631641577
 31
0.0
  0
LINE
  5
111
100
AcDbEntity
  8
舞台機構
370
              15
  6
Continuous
 62
               7
100
AcDbLine
 10
10098.78083979059
 20
-3599.9609963098774
 30
0.0
 11
12056.697839708533
 21
-3599.9609963098774
 31
0.0
  0
LINE
  5
112
100
AcDbEntity
  8
舞台機構
370
              15
  6
Continuous
 62
               7
100
AcDbLine
 10
10098.78083979059
 20
-3952.7384105873061
 30
0.0
 11
12056.697839708533
 21
-3952.7384105873061
 31
0.0
  0
LINE
  5
113
100
AcDbEntity
  8
舞台機構
370
               5
  6
Continuous
 62
               7
100
AcDbLine
 10
-13529.406400801032
 20
-3258.6895332875429
 30
0.0
 11
-15469.408139735169
 21
-3258.6895332875429
 31
0.0
  0
LINE
  5
114
100
AcDbEntity
  8
舞台機構
370
               5
  6
Continuous
 62
               7
100
AcDbLine
 10
-15469.408139735169
 20
-3258.6895332875429
 30
0.0
 11
-15469.408139735169
 21
1881.3405641185818
 31
0.0
  0
LINE
  5
115
100
AcDbEntity
  8
舞台機構
370
               5
  6
Continuous
 62
               7
100
AcDbLine
 10
-15469.408139735169
 20
1881.3405641185818
 30
0.0
 11
-13529.406400801032
 21
1881.3405641185818
 31
0.0
  0
LINE
  5
116
100
AcDbEntity
  8
舞台機構
370
               5
  6
Continuous
 62
               7
100
AcDbLine
 10
-13529.406400801032
 20
1881.3405641185818
 30
0.0
 11
-13529.406400801032
 21
-3258.6895332875429
 31
0.0
  0
MTEXT
  5
117
100
AcDbEntity
  8
舞台機構
 62
               7
100
AcDbMText
 10
12273.945045793429
 20
-1753.7891284880461
 30
0.0
 40
175.0
 41
0.0
 71
               1
 72
               1
  1
{\H0.8795x;\l８ バトン　電動}
 73
               1
 44
0.7828267384257843
  0
MTEXT
  5
118
100
AcDbEntity
  8
舞台機構
 62
               7
100
AcDbMText
 10
12273.945045793429
 20
-1999.2518963281764
 30
0.0
 40
175.0
 41
0.0
 71
               1
 72
               1
  1
{\H0.8795x;\l７ バトン}
 73
               1
 44
0.7828267384257843
  0
MTEXT
  5
119
100
AcDbEntity
  8
舞台機構
 62
               7
100
AcDbMText
 10
12312.082944007358
 20
-2253.1560733525548
 30
0.0
 40
175.0
 41
0.0
 71
               1
 72
               1
  1
{\H0.8795x;\l虹梁(後)バトン　電動}
 73
               1
 44
0.7828267384257843
  0
MTEXT
  5
11A
100
AcDbEntity
  8
舞台機構
 62
               7
100
AcDbMText
 10
12273.945045793429
 20
-2474.0901326353196
 30
0.0
 40
175.0
 41
0.0
 71
               1
 72
               1
  1
{\H0.8795x;\l６ バトン}
 73
               1
 44
0.7828267384257843
  0
MTEXT
  5
11B
100
AcDbEntity
  8
舞台機構
 62
               7
100
AcDbMText
 10
12273.945045793429
 20
-2719.6221836227924
 30
0.0
 40
175.0
 41
0.0
 71
               1
 72
               1
  1
{\H0.8795x;\l５ バトン}
 73
               1
 44
0.7828267384257843
  0
MTEXT
  5
11C
100
AcDbEntity
  8
舞台機構
 62
               7
100
AcDbMText
 10
12257.030060249381
 20
-3532.4236126666656
 30
0.0
 40
175.0
 41
0.0
 71
               1
 72
               1
  1
{\H0.8795x;\l１ＳＵＳ}
 73
               1
 44
0.7828267384257843
  0
MTEXT
  5
11D
100
AcDbEntity
  8
舞台機構
 62
               7
100
AcDbMText
 10
12257.030060249381
 20
-3902.8397739380598
 30
0.0
 40
175.0
 41
0.0
 71
               1
 72
               1
  1
{\H0.8795x;\l１ＢＯＲ}
 73
               1
 44
0.7828267384257843
  0
MTEXT
  5
11E
100
AcDbEntity
  8
舞台機構
 62
               7
100
AcDbMText
 10
13162.986392492428
 20
-3722.9374214698328
 30
0.0
 40
175.0
 41
0.0
 71
               1
 72
               1
  1
{\H0.8795x;\l第１ブリッジ　電動}
 73
               1
 44
0.7828267384257843
  0
MTEXT
  5
11F
100
AcDbEntity
  8
舞台機構
 62
               7
100
AcDbMText
 10
12312.082944007358
 20
-4397.4521628161892
 30
0.0
 40
175.0
 41
0.0
 71
               1
 72
               1
  1
{\H0.8795x;\l第１袖幕}
 73
               1
 44
0.7828267384257843
  0
MTEXT
  5
120
100
AcDbEntity
  8
舞台機構
 62
               7
100
AcDbMText
 10
12312.082944007358
 20
-4594.9592393042403
 30
0.0
 40
175.0
 41
0.0
 71
               1
 72
               1
  1
{\H0.8795x;\l第１一文字幕}
 73
               1
 44
0.7828267384257843
  0
MTEXT
  5
121
100
AcDbEntity
  8
舞台機構
 62
               7
100
AcDbMText
 10
12273.945045793429
 20
-4836.2885250859545
 30
0.0
 40
175.0
 41
0.0
 71
               1
 72
               1
  1
{\H0.8795x;\l３ バトン}
 73
               1
 44
0.7828267384257843
  0
MTEXT
  5
122
100
AcDbEntity
  8
舞台機構
 62
               7
100
AcDbMText
 10
12312.082944007358
 20
-5098.7702031911467
 30
0.0
 40
175.0
 41
0.0
 71
               1
 72
               1
  1
{\H0.8795x;\l虹梁(前)バトン　電動}
 73
               1
 44
0.7828267384257843
  0
MTEXT
  5
123
100
AcDbEntity
  8
舞台機構
 62
               7
100
AcDbMText
 10
12273.945045793429
 20
-5323.1492432556115
 30
0.0
 40
175.0
 41
0.0
 71
               1
 72
               1
  1
{\H0.8795x;\l２ バトン}
 73
               1
 44
0.7828267384257843
  0
MTEXT
  5
124
100
AcDbEntity
  8
舞台機構
 62
               7
100
AcDbMText
 10
12312.082944007358
 20
6980.9042788543738
 30
0.0
 40
175.0
 41
0.0
 71
               1
 72
               1
  1
{\H0.8795x;\l大ホリ幕　電動}
 73
               1
 44
0.7828267384257843
  0
MTEXT
  5
125
100
AcDbEntity
  8
舞台機構
 62
               7
100
AcDbMText
 10
12312.080469609238
 20
6693.1713679409586
 30
0.0
 40
175.0
 41
0.0
 71
               1
 72
               1
  1
{\H0.8795x;\l大黒幕(ヒダ無し)}
 73
               1
 44
0.7828267384257843
  0
MTEXT
  5
126
100
AcDbEntity
  8
舞台機構
 62
               7
100
AcDbMText
 10
12273.945045793429
 20
6434.9778217766434
 30
0.0
 40
175.0
 41
0.0
 71
               1
 72
               1
  1
{\H0.8795x;\l２０ バトン}
 73
               1
 44
0.7828267384257843
  0
MTEXT
  5
127
100
AcDbEntity
  8
舞台機構
 62
               7
100
AcDbMText
 10
12257.030060249381
 20
6176.8708795465063
 30
0.0
 40
175.0
 41
0.0
 71
               1
 72
               1
  1
{\H0.8795x;\l１９ バトン　電動}
 73
               1
 44
0.7828267384257843
  0
MTEXT
  5
128
100
AcDbEntity
  8
舞台機構
 62
               7
100
AcDbMText
 10
12257.030060249381
 20
5931.4427532800473
 30
0.0
 40
175.0
 41
0.0
 71
               1
 72
               1
  1
{\H0.8795x;\l１８ バトン}
 73
               1
 44
0.7828267384257843
  0
MTEXT
  5
129
100
AcDbEntity
  8
舞台機構
 62
               7
100
AcDbMText
 10
12257.030060249381
 20
5673.3024066752987
 30
0.0
 40
175.0
 41
0.0
 71
               1
 72
               1
  1
{\H0.8795x;\l１７ バトン}
 73
               1
 44
0.7828267384257843
  0
MTEXT
  5
12A
100
AcDbEntity
  8
舞台機構
 62
               7
100
AcDbMText
 10
12312.082944007358
 20
5076.5431518321857
 30
0.0
 40
175.0
 41
0.0
 71
               1
 72
               1
  1
{\H0.8795x;\l大ＨＬ　電動}
 73
               1
 44
0.7828267384257843
  0
MTEXT
  5
12B
100
AcDbEntity
  8
舞台機構
 62
               7
100
AcDbMText
 10
12312.082944007358
 20
4609.6291755023412
 30
0.0
 40
175.0
 41
0.0
 71
               1
 72
               1
  1
{\H0.8795x;\l第２袖幕}
 73
               1
 44
0.7828267384257843
  0
MTEXT
  5
12C
100
AcDbEntity
  8
舞台機構
 62
               7
100
AcDbMText
 10
12257.030060249381
 20
4357.137879804126
 30
0.0
 40
175.0
 41
0.0
 71
               1
 72
               1
  1
{\H0.8795x;\l１６ バトン}
 73
               1
 44
0.7828267384257843
  0
MTEXT
  5
12D
100
AcDbEntity
  8
舞台機構
 62
               7
100
AcDbMText
 10
12257.030060249381
 20
4124.3700115154497
 30
0.0
 40
175.0
 41
0.0
 71
               1
 72
               1
  1
{\H0.8795x;\l１５ バトン}
 73
               1
 44
0.7828267384257843
  0
MTEXT
  5
12E
100
AcDbEntity
  8
舞台機構
 62
               7
100
AcDbMText
 10
12299.369486470008
 20
3857.8055765132885
 30
0.0
 40
175.0
 41
0.0
 71
               1
 72
               1
  1
{\H0.8795x;\l中ホリ幕}
 73
               1
 44
0.7828267384257843
  0
MTEXT
  5
12F
100
AcDbEntity
  8
舞台機構
 62
               7
100
AcDbMText
 10
12257.030060249381
 20
3476.9338459884748
 30
0.0
 40
175.0
 41
0.0
 71
               1
 72
               1
  1
{\H0.8795x;\l１４ バトン　電動}
 73
               1
 44
0.7828267384257843
  0
MTEXT
  5
130
100
AcDbEntity
  8
舞台機構
 62
               7
100
AcDbMText
 10
12316.319113587728
 20
3070.6710791616933
 30
0.0
 40
175.0
 41
0.0
 71
               1
 72
               1
  1
{\H0.8795x;\l松葉目(吊替え不可)}
 73
               1
 44
0.7828267384257843
  0
MTEXT
  5
131
100
AcDbEntity
  8
舞台機構
 62
               7
100
AcDbMText
 10
12273.945045793429
 20
2419.6161063851323
 30
0.0
 40
175.0
 41
0.0
 71
               1
 72
               1
  1
{\H0.8795x;\l３ＳＵＳ　電動}
 73
               1
 44
0.7828267384257843
  0
MTEXT
  5
132
100
AcDbEntity
  8
舞台機構
 62
               7
100
AcDbMText
 10
12299.369486470008
 20
1953.9603614989901
 30
0.0
 40
175.0
 41
0.0
 71
               1
 72
               1
  1
{\H0.8795x;\l中ＨＬ　電動}
 73
               1
 44
0.7828267384257843
  0
MTEXT
  5
133
100
AcDbEntity
  8
舞台機構
 62
               7
100
AcDbMText
 10
12307.809658455197
 20
1492.5247026054421
 30
0.0
 40
175.0
 41
0.0
 71
               1
 72
               1
  1
{\H0.8795x;\lスクリーン　電動}
 73
               1
 44
0.7828267384257843
  0
MTEXT
  5
134
100
AcDbEntity
  8
舞台機構
 62
               7
100
AcDbMText
 10
12312.080469609238
 20
1199.0190208795248
 30
0.0
 40
175.0
 41
0.0
 71
               1
 72
               1
  1
{\H0.8795x;\l第２中割幕}
 73
               1
 44
0.7828267384257843
  0
MTEXT
  5
135
100
AcDbEntity
  8
舞台機構
 62
               7
100
AcDbMText
 10
12312.082944007358
 20
954.88253043137956
 30
0.0
 40
175.0
 41
0.0
 71
               1
 72
               1
  1
{\H0.8795x;\l第３一文字幕}
 73
               1
 44
0.7828267384257843
  0
MTEXT
  5
136
100
AcDbEntity
  8
舞台機構
 62
               7
100
AcDbMText
 10
12257.030060249381
 20
709.35047944390681
 30
0.0
 40
175.0
 41
0.0
 71
               1
 72
               1
  1
{\H0.8795x;\l１１ バトン　電動}
 73
               1
 44
0.7828267384257843
  0
MTEXT
  5
137
100
AcDbEntity
  8
舞台機構
 62
               7
100
AcDbMText
 10
12257.030060249381
 20
446.88612212555017
 30
0.0
 40
175.0
 41
0.0
 71
               1
 72
               1
  1
{\H0.8795x;\l１０ バトン}
 73
               1
 44
0.7828267384257843
  0
MTEXT
  5
138
100
AcDbEntity
  8
舞台機構
 62
               7
100
AcDbMText
 10
12273.945045793429
 20
-365.86334455781616
 30
0.0
 40
175.0
 41
0.0
 71
               1
 72
               1
  1
{\H0.8795x;\l２ＳＵＳ}
 73
               1
 44
0.7828267384257843
  0
MTEXT
  5
139
100
AcDbEntity
  8
舞台機構
 62
               7
100
AcDbMText
 10
12273.945045793429
 20
-736.28074302827008
 30
0.0
 40
175.0
 41
0.0
 71
               1
 72
               1
  1
{\H0.8795x;\l２ＢＯＲ}
 73
               1
 44
0.7828267384257843
  0
MTEXT
  5
13A
100
AcDbEntity
  8
舞台機構
 62
               7
100
AcDbMText
 10
13162.986392492428
 20
-556.41179493465461
 30
0.0
 40
175.0
 41
0.0
 71
               1
 72
               1
  1
{\H0.8795x;\l第２ブリッジ　電動}
 73
               1
 44
0.7828267384257843
  0
MTEXT
  5
13B
100
AcDbEntity
  8
舞台機構
 62
               7
100
AcDbMText
 10
12312.080469609238
 20
-1243.1574861850822
 30
0.0
 40
175.0
 41
0.0
 71
               1
 72
               1
  1
{\H0.8795x;\l第１中割幕}
 73
               1
 44
0.7828267384257843
  0
MTEXT
  5
13C
100
AcDbEntity
  8
舞台機構
 62
               7
100
AcDbMText
 10
12312.082944007358
 20
-1499.8515470890561
 30
0.0
 40
175.0
 41
0.0
 71
               1
 72
               1
  1
{\H0.8795x;\l第２一文字幕}
 73
               1
 44
0.7828267384257843
  0
MTEXT
  5
13D
100
AcDbEntity
  8
舞台機構
 62
               7
100
AcDbMText
 10
12316.319113587728
 20
-6085.1005537472665
 30
0.0
 40
175.0
 41
0.0
 71
               1
 72
               1
  1
{\H0.8795x;\l緞帳　電動}
 73
               1
 44
0.7828267384257843
  0
MTEXT
  5
13E
100
AcDbEntity
  8
舞台機構
 62
               7
100
AcDbMText
 10
12307.809658455197
 20
-5856.5533900507144
 30
0.0
 40
175.0
 41
0.0
 71
               1
 72
               1
  1
{\H0.8795x;\l一文字幕　電動}
 73
               1
 44
0.7828267384257843
  0
MTEXT
  5
13F
100
AcDbEntity
  8
舞台機構
 62
               7
100
AcDbMText
 10
12299.369486470008
 20
-5568.6812942430843
 30
0.0
 40
175.0
 41
0.0
 71
               1
 72
               1
  1
{\H0.8795x;\l中割暗転幕}
 73
               1
 44
0.7828267384257843
  0
MTEXT
  5
140
100
AcDbEntity
  8
舞台機構
 62
               7
100
AcDbMText
 10
-15134.424122334167
 20
1274.783197583165
 30
0.0
 40
262.5
 41
0.0
 71
               1
 72
               1
  1
{\H0.8795x;\l搬入迫}
 73
               1
 44
0.7828267384257842
  0
MTEXT
  5
141
100
AcDbEntity
  8
舞台機構
 62
               7
100
AcDbMText
 10
-14175.909213376581
 20
393.28331149159931
 30
0.0
 40
262.5
 41
0.0
 71
               1
 72
               1
  1
{\H0.8795x;\l1,940mm×5,140mm}
 11
0.0
 21
-1.0
 31
0.0
 73
               1
 44
0.7828267384257842
  0
MTEXT
  5
142
100
AcDbEntity
  8
舞台機構
 62
               7
100
AcDbMText
 10
-14641.582897649088
 20
5.2284032262396067
 30
0.0
 40
262.5
 41
0.0
 71
               1
 72
               1
  1
{\H0.8795x;\l揚力 2,000㎏}
 11
0.0
 21
-1.0
 31
0.0
 73
               1
 44
0.7828267384257842
  0
INSERT
  5
143
100
AcDbEntity
  8
舞台機構
 62
               7
100
AcDbBlockReference
  2
Batt Insulation
 10
12058.221839708533
 20
1108.0135277180709
 30
0.0
 50
180.0
  0
INSERT
  5
144
100
AcDbEntity
  8
舞台機構
 62
               7
100
AcDbBlockReference
  2
Batt Insulation-1
 10
12058.221839708533
 20
872.21428043137962
 30
0.0
 50
180.0
  0
INSERT
  5
145
100
AcDbEntity
  8
舞台機構
 62
               7
100
AcDbBlockReference
  2
Batt Insulation-2
 10
12058.221839708533
 20
4526.9609255023415
 30
0.0
 50
180.0
  0
INSERT
  5
146
100
AcDbEntity
  8
舞台機構
 62
               7
100
AcDbBlockReference
  2
Batt Insulation-3
 10
12058.221839708533
 20
-1325.8257361850822
 30
0.0
 50
180.0
  0
INSERT
  5
147
100
AcDbEntity
  8
舞台機構
 62
               7
100
AcDbBlockReference
  2
Batt Insulation-4
 10
12058.221839708533
 20
-1582.5197970890561
 30
0.0
 50
180.0
  0
INSERT
  5
148
100
AcDbEntity
  8
舞台機構
 62
               7
100
AcDbBlockReference
  2
Batt Insulation-5
 10
12058.221839708533
 20
-4473.5886433563692
 30
0.0
 50
180.0
  0
INSERT
  5
149
100
AcDbEntity
  8
舞台機構
 62
               7
100
AcDbBlockReference
  2
Batt Insulation-6
 10
12067.040594605985
 20
-4677.62748930424
 30
0.0
 50
180.0
  0
INSERT
  5
14A
100
AcDbEntity
  8
舞台機構
 62
               7
100
AcDbBlockReference
  2
Batt Insulation-7
 10
12067.040594605985
 20
-5661.8141227007409
 30
0.0
 50
180.0
  0
INSERT
  5
14B
100
AcDbEntity
  8
舞台機構
 62
               7
100
AcDbBlockReference
  2
Batt Insulation-8
 10
12067.040594605985
 20
-5951.8141227007409
 30
0.0
 50
180.0
  0
LINE
  5
14C
100
AcDbEntity
  8
縮尺
370
               5
  6
Continuous
 62
               7
100
AcDbLine
 10
-16272.115261651052
 20
9761.4981065366883
 30
0.0
 11
-11272.145376794506
 21
9761.4981065366883
 31
0.0
  0
LINE
  5
14D
100
AcDbEntity
  8
縮尺
370
               5
  6
Continuous
 62
               7
100
AcDbLine
 10
-16272.115261651052
 20
9961.4839113408234
 30
0.0
 11
-16272.115261651052
 21
9561.4405441870913
 31
0.0
  0
LINE
  5
14E
100
AcDbEntity
  8
縮尺
370
               5
  6
Continuous
 62
               7
100
AcDbLine
 10
-15272.142317063757
 20
9961.4839113408234
 30
0.0
 11
-15272.142317063757
 21
9761.4981065366883
 31
0.0
  0
LINE
  5
14F
100
AcDbEntity
  8
縮尺
370
               5
  6
Continuous
 62
               7
100
AcDbLine
 10
-14272.168753876933
 20
9961.4839113408234
 30
0.0
 11
-14272.168753876933
 21
9761.4981065366883
 31
0.0
  0
LINE
  5
150
100
AcDbEntity
  8
縮尺
370
               5
  6
Continuous
 62
               7
100
AcDbLine
 10
-13272.126526142296
 20
9961.4839113408234
 30
0.0
 11
-13272.126526142296
 21
9761.4981065366883
 31
0.0
  0
LINE
  5
151
100
AcDbEntity
  8
縮尺
370
               5
  6
Continuous
 62
               7
100
AcDbLine
 10
-12272.152962955472
 20
9961.4839113408234
 30
0.0
 11
-12272.152962955472
 21
9761.4981065366883
 31
0.0
  0
LINE
  5
152
100
AcDbEntity
  8
縮尺
370
               5
  6
Continuous
 62
               7
100
AcDbLine
 10
-11272.145376794506
 20
9961.4839113408234
 30
0.0
 11
-11272.145376794506
 21
9761.4981065366883
 31
0.0
  0
LINE
  5
153
100
AcDbEntity
  8
縮尺
370
               5
  6
Continuous
 62
               7
100
AcDbLine
 10
-14472.191056053329
 20
9761.4981065366883
 30
0.0
 11
-14472.191056053329
 21
9561.4405441870913
 31
0.0
  0
LINE
  5
154
100
AcDbEntity
  8
縮尺
370
               5
  6
Continuous
 62
               7
100
AcDbLine
 10
-12672.197567308263
 20
9761.4981065366883
 30
0.0
 11
-12672.197567308263
 21
9561.4405441870913
 31
0.0
  0
MTEXT
  5
155
100
AcDbEntity
  8
縮尺
 62
               7
100
AcDbMText
 10
4226.9664811203256
 20
10259.857401826186
 30
0.0
 40
230.85937500000003
 41
4123.0335188796744
 71
               1
 72
               1
  1
舞台間口　　　 17.99ｍ\P舞台奥行　　　 14.57ｍ\Pプロセミアム高　6.50ｍ\P舞台框高　　　　0.99ｍ
  7
ＭＳ ゴシック
 73
               1
 44
1.1742401076386766
  0
MTEXT
  5
156
100
AcDbEntity
  8
縮尺
 62
               7
100
AcDbMText
 10
-11137.717512964155
 20
9882.2569910732564
 30
0.0
 40
218.75
 41
0.0
 71
               1
 72
               1
  1
{\H0.8795x;\lｍ}
 73
               1
 44
0.7828267384257843
  0
MTEXT
  5
157
100
AcDbEntity
  8
縮尺
 62
               7
100
AcDbMText
 10
-16360.292603733338
 20
10236.514095426071
 30
0.0
 40
218.75
 41
0.0
 71
               1
 72
               1
  1
{\H0.8795x;\l0}
 73
               1
 44
0.7828267384257843
  0
MTEXT
  5
158
100
AcDbEntity
  8
縮尺
 62
               7
100
AcDbMText
 10
-15362.816636148258
 20
10236.514095426071
 30
0.0
 40
218.75
 41
0.0
 71
               1
 72
               1
  1
{\H0.8795x;\l1}
 73
               1
 44
0.7828267384257843
  0
MTEXT
  5
159
100
AcDbEntity
  8
縮尺
 62
               7
100
AcDbMText
 10
-14365.324275675637
 20
10236.514095426071
 30
0.0
 40
218.75
 41
0.0
 71
               1
 72
               1
  1
{\H0.8795x;\l2}
 73
               1
 44
0.7828267384257843
  0
MTEXT
  5
15A
100
AcDbEntity
  8
縮尺
 62
               7
100
AcDbMText
 10
-13367.831296603486
 20
10236.514095426071
 30
0.0
 40
218.75
 41
0.0
 71
               1
 72
               1
  1
{\H0.8795x;\l3}
 73
               1
 44
0.7828267384257843
  0
MTEXT
  5
15B
100
AcDbEntity
  8
縮尺
 62
               7
100
AcDbMText
 10
-12370.406982079148
 20
10236.514095426071
 30
0.0
 40
218.75
 41
0.0
 71
               1
 72
               1
  1
{\H0.8795x;\l4}
 73
               1
 44
0.7828267384257843
  0
MTEXT
  5
15C
100
AcDbEntity
  8
縮尺
 62
               7
100
AcDbMText
 10
-11372.914003006998
 20
10236.514095426071
 30
0.0
 40
218.75
 41
0.0
 71
               1
 72
               1
  1
{\H0.8795x;\l5}
 73
               1
 44
0.7828267384257843
  0
MTEXT
  5
15D
100
AcDbEntity
  8
縮尺
 62
               7
100
AcDbMText
 10
-14700.772861323552
 20
9423.6792620075867
 30
0.0
 40
218.75
 41
0.0
 71
               1
 72
               1
  1
{\H0.8795x;\l1.8}
 73
               1
 44
0.7828267384257843
  0
MTEXT
  5
15E
100
AcDbEntity
  8
縮尺
 62
               7
100
AcDbMText
 10
-12892.787066652905
 20
9423.6792620075867
 30
0.0
 40
218.75
 41
0.0
 71
               1
 72
               1
  1
{\H0.8795x;\l3.6}
 73
               1
 44
0.7828267384257843
  0
MTEXT
  5
15F
100
AcDbEntity
  8
タイトル
 62
               7
100
AcDbMText
 10
-5455.2467499317654
 20
11163.8125
 30
0.0
 40
350.0
 41
0.0
 71
               1
 72
               1
  1
{\H0.8795x;\lアステールプラザ 中ホール(中区民文化センタ ー ホール)}
 73
               1
 44
0.7828267384257843
  0
MTEXT
  5
160
100
AcDbEntity
  8
タイトル
 62
               7
100
AcDbMText
 10
-2455.2465655547308
 20
10346.300332008628
 30
0.0
 40
307.8125
 41
0.0
 71
               1
 72
               1
  1
舞台平面図【A3 1/100】
  7
ＭＳ ゴシック
 73
               1
 44
0.7828267384257843
  0
MTEXT
  5
161
100
AcDbEntity
  8
タイトル
 62
               7
100
AcDbMText
 10
13503.084990806179
 20
-11372.509358243522
 30
0.0
 40
244.32617187500003
 41
0.0
 71
               1
 72
               1
  1
(作成 2012.06.25)
  7
ＭＳ ゴシック
 73
               1
 44
0.7828267384257843
  0
ENDSEC
  0
SECTION
  2
OBJECTS
  0
DICTIONARY
  5
19
100
AcDbDictionary
280
               0
281
               1
  3
ACAD_GROUP
350
1A
  3
ACAD_MLINESTYLE
350
1B
  3
ACAD_LAYOUT
350
1E
  3
ACAD_PLOTSETTINGS
350
22
  3
ACAD_PLOTSTYLENAME
350
1F
  3
ACAD_WIPEOUT_VARS
350
23
  0
DICTIONARY
  5
1A
102
{ACAD_REACTORS
330
19
102
}
100
AcDbDictionary
280
               0
281
               1
  0
DICTIONARY
  5
1B
102
{ACAD_REACTORS
330
19
102
}
100
AcDbDictionary
280
               0
281
               1
  3
Standard
350
1C
  0
MLINESTYLE
  5
1C
102
{ACAD_REACTORS
330
1B
102
}
100
AcDbMlineStyle
  2
Standard
 70
               0
  3

 62
               0
 51
90.0
 52
90.0
 71
               2
 49
0.5
 62
             256
  6
ByLayer
 49
-0.5
 62
             256
  6
ByLayer
  0
ACDBDICTIONARYWDFLT
  5
1F
102
{ACAD_REACTORS
330
19
102
}
100
AcDbDictionary
281
               1
  3
Normal
350
1D
100
AcDbDictionaryWithDefault
340
1D
  0
ACDBPLACEHOLDER
  5
1D
102
{ACAD_REACTORS
330
1F
102
}
  0
LAYOUT
  5
20
102
{ACAD_REACTORS
330
1E
102
}
100
AcDbPlotSettings
  1

  2

  4

  6

 40
0.0
 41
0.0
 42
0.0
 43
0.0
 44
0.0
 45
0.0
 46
0.0
 47
0.0
 48
0.0
 49
0.0
140
0.0
141
0.0
142
1.0
143
1.0
 70
            1024
 72
               0
 73
               0
 74
               0
  7

 75
               0
147
1.0
148
0.0
149
0.0
100
AcDbLayout
  1
Model
 70
               0
 71
               0
 10
0.0
 20
0.0
 11
0.0
 21
0.0
 12
0.0
 22
0.0
 32
0.0
 14
0.0
 24
0.0
 34
0.0
 15
0.0
 25
0.0
 35
0.0
146
0.0
 13
0.0
 23
0.0
 33
0.0
 16
0.0
 26
0.0
 36
0.0
 17
0.0
 27
0.0
 37
0.0
 76
               0
330
A
331
0
345
0
346
0
  0
LAYOUT
  5
21
102
{ACAD_REACTORS
330
1E
102
}
100
AcDbPlotSettings
  1

  2

  4

  6

 40
0.0
 41
0.0
 42
0.0
 43
0.0
 44
0.0
 45
0.0
 46
0.0
 47
0.0
 48
0.0
 49
0.0
140
0.0
141
0.0
142
1.0
143
1.0
 70
               0
 72
               0
 73
               0
 74
               0
  7

 75
               0
147
1.0
148
0.0
149
0.0
100
AcDbLayout
  1
Layout1
 70
               0
 71
               0
 10
0.0
 20
0.0
 11
0.0
 21
0.0
 12
0.0
 22
0.0
 32
0.0
 14
0.0
 24
0.0
 34
0.0
 15
0.0
 25
0.0
 35
0.0
146
0.0
 13
0.0
 23
0.0
 33
0.0
 16
0.0
 26
0.0
 36
0.0
 17
0.0
 27
0.0
 37
0.0
 76
               0
330
B
331
0
345
0
346
0
  0
DICTIONARY
  5
1E
102
{ACAD_REACTORS
330
19
102
}
100
AcDbDictionary
280
               0
281
               1
  3
Layout1
350
21
  3
Model
350
20
  0
DICTIONARY
  5
22
102
{ACAD_REACTORS
330
19
102
}
100
AcDbDictionary
280
               0
281
               1
  0
WIPEOUTVARIABLES
  5
23
100
AcDbWipeoutVariables
 70
               0
  0
ENDSEC
  0
EOF
