  0
SECTION
  2
HEADER
  9
$ACADVER
  1
AC1009
  9
$INSBASE
 10
0
 20
0
 30
0
  9
$EXTMIN
 10
0
 20
0
  9
$EXTMAX
 10
42000
 20
29700
  9
$LIMMIN
 10
0
 20
0
  9
$LIMMAX
 10
42000
 20
29700
  9
$LTSCALE
 40
100
  0
ENDSEC
  0
SECTION
  2
TABLES
  0
TABLE
  2
LTYPE
 70
     9
  0
LTYPE
  2
CONTINUOUS
 70
    64
  3
実線
 72
    65
 73
     0
 40
0.0
  0
LTYPE
  2
DASHED1
 70
    64
  3
--  --  --  --  --  --  --  --  
 72
    65
 73
     2
 40
2.5
 49
1.25
 49
-1.25
  0
LTYPE
  2
DASHED2
 70
    64
  3
----    ----    ----    ----    
 72
    65
 73
     2
 40
5.0
 49
2.5
 49
-2.5
  0
LTYPE
  2
DASHED3
 70
    64
  3
------  ------  ------  ------  
 72
    65
 73
     2
 40
5.0
 49
3.75
 49
-1.25
  0
LTYPE
  2
CENTER1
 70
    64
  3
----- - ----- - ----- - ----- - 
 72
    65
 73
     4
 40
10.0
 49
6.25
 49
-1.25
 49
1.25
 49
-1.25
  0
LTYPE
  2
CENTER2
 70
    64
  3
----------  --  ----------  --  
 72
    65
 73
     4
 40
20.0
 49
12.5
 49
-2.5
 49
2.5
 49
-2.5
  0
LTYPE
  2
PHANTOM1
 70
    64
  3
--- - - --- - - --- - - --- - - 
 72
    65
 73
     6
 40
10.0
 49
3.25
 49
-1.25
 49
1.25
 49
-1.25
 49
1.25
 49
-1.25
  0
LTYPE
  2
PHANTOM2
 70
    64
  3
--------  -  -  --------  -  -  
 72
    65
 73
     6
 40
20.0
 49
10.0
 49
-2.5
 49
1.25
 49
-2.5
 49
1.25
 49
-2.5
  0
LTYPE
  2
DOT
 70
    64
  3
-   -   -   -   -   -   -   -   
 72
    65
 73
     2
 40
2.5
 49
0.625
 49
-1.875
  0
LTYPE
  2
DUMMY
 70
    64
  3
ダミー
 72
    65
 73
     0
 40
0.0
  0
LTYPE
  2
RAND1
 70
    64
  3
ランダム線1
 72
    65
 73
     4
 40
10.0
 49
1.0
 49
-2.0
 49
3.0
 49
-4.0
  0
LTYPE
  2
RAND2
 70
    64
  3
ランダム線2
 72
    65
 73
     4
 40
14.0
 49
2.0
 49
-3.0
 49
4.0
 49
-5.0
  0
LTYPE
  2
RAND3
 70
    64
  3
ランダム線3
 72
    65
 73
     4
 40
18.0
 49
3.0
 49
-4.0
 49
5.0
 49
-6.0
  0
LTYPE
  2
RAND4
 70
    64
  3
ランダム線4
 72
    65
 73
     4
 40
22.0
 49
4.0
 49
-5.0
 49
6.0
 49
-7.0
  0
LTYPE
  2
RAND5
 70
    64
  3
ランダム線5
 72
    65
 73
     4
 40
26.0
 49
5.0
 49
-6.0
 49
7.0
 49
-8.0
  0
LTYPE
  2
LONG1
 70
    64
  3
----------  --  ----------  --  
 72
    65
 73
     4
 40
40.0
 49
32.5
 49
-2.5
 49
2.5
 49
-2.5
  0
LTYPE
  2
LONG2
 70
    64
  3
--------  -  -  --------  -  -  
 72
    65
 73
     6
 40
40.0
 49
30.0
 49
-2.5
 49
1.25
 49
-2.5
 49
1.25
 49
-2.5
  0
LTYPE
  2
LONG3
 70
    64
  3
+++++++++++++++..+++++++++++++++
 72
    65
 73
     2
 40
40.0
 49
37.5
 49
-2.5
  0
LTYPE
  2
LONG4
 70
    64
  3
+++++++++++++++..+++++++++++++++
 72
    65
 73
     2
 40
80.0
 49
75.0
 49
-5.0
  0
LTYPE
  2
LONG5
 70
    64
  3
----------  --  ----------  --  
 72
    65
 73
     4
 40
60.0
 49
37.5
 49
-7.5
 49
7.5
 49
-7.5
  0
LTYPE
  2
dashed
 70
   64
  3
-------   -------------   ------
 72
   65
 73
    2
 40
7.5
 49
6
 49
-1.5
  0
LTYPE
  2
dashed_spaced
 70
   64
  3
----        --------        ----
 72
   65
 73
    2
 40
12
 49
6
 49
-6
  0
LTYPE
  2
long_dashed_dotted
 70
   64
  3
------------- --- --------------
 72
   65
 73
    4
 40
15.25
 49
12
 49
-1.5
 49
0.25
 49
-1.5
  0
LTYPE
  2
long_dashed_double-dotted
 70
   64
  3
----------- --- --- ------------
 72
   65
 73
    6
 40
17
 49
12
 49
-1.5
 49
0.25
 49
-1.5
 49
0.25
 49
-1.5
  0
LTYPE
  2
long_dashed_triplicate-dotted
 70
   64
  3
--------- --- --- --- ----------
 72
   65
 73
    8
 40
18.75
 49
12
 49
-1.5
 49
0.25
 49
-1.5
 49
0.25
 49
-1.5
 49
0.25
 49
-1.5
  0
LTYPE
  2
dotted
 70
   64
  3
   -       -       -       -    
 72
   65
 73
    2
 40
1.75
 49
0.25
 49
-1.5
  0
LTYPE
  2
chain
 70
   64
  3
-------------- -- --------------
 72
   65
 73
    4
 40
18.5
 49
12
 49
-1.5
 49
3.5
 49
-1.5
  0
LTYPE
  2
chain_double_dash
 70
   64
  3
------------ -- -- -------------
 72
   65
 73
    6
 40
23.5
 49
12
 49
-1.5
 49
3.5
 49
-1.5
 49
3.5
 49
-1.5
  0
LTYPE
  2
dashed_dotted
 70
   64
  3
-----------     -     ----------
 72
   65
 73
    4
 40
9.25
 49
6
 49
-1.5
 49
0.25
 49
-1.5
  0
LTYPE
  2
double-dashed_dotted
 70
   64
  3
------   -----------   -   -----
 72
   65
 73
    6
 40
16.75
 49
6
 49
-1.5
 49
6
 49
-1.5
 49
0.25
 49
-1.5
  0
LTYPE
  2
dashed_double-dotted
 70
   64
  3
---------    -    -    ---------
 72
   65
 73
    6
 40
11
 49
6
 49
-1.5
 49
0.25
 49
-1.5
 49
0.25
 49
-1.5
  0
LTYPE
  2
double-dashed_double-dotted
 70
   64
  3
-----   ---------   -   -   ----
 72
   65
 73
    8
 40
18.5
 49
6
 49
-1.5
 49
6
 49
-1.5
 49
0.25
 49
-1.5
 49
0.25
 49
-1.5
  0
LTYPE
  2
dashed_triplicate-dotted
 70
   64
  3
-------    -    -    -    ------
 72
   65
 73
    8
 40
12.75
 49
6
 49
-1.5
 49
0.25
 49
-1.5
 49
0.25
 49
-1.5
 49
0.25
 49
-1.5
  0
LTYPE
  2
double-dashed_triplicate-dotted
 70
   64
  3
-----  ---------  -  -  -  -----
 72
   65
 73
   10
 40
20.25
 49
6
 49
-1.5
 49
6
 49
-1.5
 49
0.25
 49
-1.5
 49
0.25
 49
-1.5
 49
0.25
 49
-1.5
  0
LTYPE
  2
undefined
 70
   64
  3
--------------------------------
 72
   65
 73
    0
 40
0
  0
ENDTAB
  0
TABLE
  2
STYLE
  5
3
100
AcDbSymbolTable
 70
     1
  0
STYLE
  5
10
100
AcDbSymbolTableRecord
100
AcDbTextStyleTableRecord
  2
STANDARD
 70
     0
 40
0.0
 41
1.0
 50
0.0
 71
     0
 42
0.2
  3
txt
  4
bigfont.shx
  0
STYLE
  5
26
100
AcDbSymbolTableRecord
100
AcDbTextStyleTableRecord
  2
TATEGAKI
 70
    68
 40
0.0
 41
1.0
 50
0.0
 71
     0
 42
1.0
  3
txt
  4
bigfont.shx
  0
ENDTAB
  0
TABLE
  2
LAYER
 70
    5
  0
LAYER
  2
_0-0_
 70
   64
 62
    7
  6
CONTINUOUS
  0
LAYER
  2
_0-1_
 70
   64
 62
    7
  6
CONTINUOUS
  0
LAYER
  2
_0-2_
 70
   64
 62
    7
  6
CONTINUOUS
  0
LAYER
  2
_0-3_
 70
   64
 62
    7
  6
CONTINUOUS
  0
LAYER
  2
ADD_LINE
 70
   64
 62
    7
  6
CONTINUOUS
  0
ENDTAB
  0
ENDSEC
  0
SECTION
  2
BLOCKS
  0
ENDSEC
  0
SECTION
  2
ENTITIES
  0
LINE
  8
_0-0_
  6
CONTINUOUS
 62
    7
 10
5367.5258739574529
 20
10351.58126418655
 11
9769.1252424910253
 21
10351.58126418655
  0
LINE
  8
_0-0_
  6
CONTINUOUS
 62
    7
 10
33871.346963418502
 20
11346.203365841429
 11
33871.346963418502
 21
13146.204355600719
  0
LINE
  8
_0-0_
  6
CONTINUOUS
 62
    7
 10
32371.554812869512
 20
11348.907883102829
 11
32371.554812869512
 21
8542.6631618190459
  0
LINE
  8
_0-0_
  6
CONTINUOUS
 62
    7
 10
32368.387583139782
 20
11345.817359718118
 11
35868.386758340377
 21
11345.817359718118
  0
LINE
  8
_0-0_
  6
CONTINUOUS
 62
    7
 10
16669.511124894427
 20
21044.462461729308
 11
19971.548544394005
 21
21044.462461729308
  0
LINE
  8
_0-0_
  6
CONTINUOUS
 62
    7
 10
9071.3437054608312
 20
11944.982992636191
 11
5567.5259151974242
 21
11944.982992636191
  0
LINE
  8
_0-0_
  6
CONTINUOUS
 62
    7
 10
5567.5259151974242
 20
16344.69192092483
 11
5363.6868451092705
 21
16344.69192092483
  0
LINE
  8
_0-0_
  6
CONTINUOUS
 62
    7
 10
5367.6149522936012
 20
18141.473718591642
 11
5367.6149522936012
 21
16344.69192092483
  0
LINE
  8
_0-0_
  6
CONTINUOUS
 62
    7
 10
7375.1096983213702
 20
18843.793301968963
 11
7777.4307663376276
 21
18843.793301968963
  0
LINE
  8
_0-0_
  6
CONTINUOUS
 62
    7
 10
7777.4307663376276
 20
18843.793301968963
 11
7777.4307663376276
 21
17553.816511824327
  0
LINE
  8
_0-0_
  6
CONTINUOUS
 62
    7
 10
5567.5259151974242
 20
11944.982992636191
 11
5567.5259151974242
 21
16344.69192092483
  0
LINE
  8
_0-0_
  6
CONTINUOUS
 62
    7
 10
8671.7215873099667
 20
16241.764377903295
 11
8671.7215873099667
 21
15343.236149968328
  0
LINE
  8
_0-0_
  6
CONTINUOUS
 62
    7
 10
9071.3437054608312
 20
15343.236149968328
 11
9071.3437054608312
 21
11944.982992636191
  0
LINE
  8
_0-0_
  6
CONTINUOUS
 62
    7
 10
8671.7215873099667
 20
15343.236149968328
 11
9071.3437054608312
 21
15343.236149968328
  0
LINE
  8
_0-0_
  6
CONTINUOUS
 62
    7
 10
9065.7453794737121
 20
16241.764377903295
 11
8671.7215873099667
 21
16241.764377903295
  0
LINE
  8
_0-0_
  6
CONTINUOUS
 62
    7
 10
7777.4307663376276
 20
17553.816511824327
 11
9065.7453794737121
 21
17553.816511824327
  0
LINE
  8
_0-0_
  6
CONTINUOUS
 62
    7
 10
9065.7453794737121
 20
17553.816511824327
 11
9065.7453794737121
 21
16241.764377903295
  0
LINE
  8
_0-0_
  6
CONTINUOUS
 62
    7
 10
5367.5258739574529
 20
16340.852892076649
 11
5367.5258739574529
 21
10351.58126418655
  0
LINE
  8
_0-0_
  6
CONTINUOUS
 62
    7
 10
7974.5734962257193
 20
10353.437062856314
 11
7974.5734962257193
 21
8545.1542622334255
  0
LINE
  8
_0-0_
  6
CONTINUOUS
 62
    7
 10
7870.9129127296255
 20
10350.618104676943
 11
7870.9129127296255
 21
8543.2823799751895
  0
LINE
  8
_0-0_
  6
CONTINUOUS
 62
    7
 10
6169.934865590687
 20
8244.4443573822846
 11
4571.5438224173877
 21
8244.4443573822846
  0
LINE
  8
_0-0_
  6
CONTINUOUS
 62
    7
 10
6373.5951604069896
 20
10352.497410129858
 11
6373.5951604069896
 21
8545.3509768924214
  0
LINE
  8
_0-0_
  6
CONTINUOUS
 62
    7
 10
6273.7742243586354
 20
10352.497410129858
 11
6273.7742243586354
 21
8545.3509768924214
  0
LINE
  8
_0-0_
  6
CONTINUOUS
 62
    7
 10
5567.5259151974242
 20
18141.473718591642
 11
5567.5259151974242
 21
18843.793301968963
  0
LINE
  8
_0-0_
  6
CONTINUOUS
 62
    7
 10
5367.6149522936012
 20
18141.473718591642
 11
5567.5259151974242
 21
18141.473718591642
  0
LINE
  8
_0-0_
  6
CONTINUOUS
 62
    7
 10
5467.6152822133645
 20
16344.69192092483
 11
5467.6152822133645
 21
18141.529392551733
  0
LINE
  8
_0-0_
  6
CONTINUOUS
 62
    7
 10
27669.401426573058
 20
4346.8229963972763
 11
27669.401426573058
 21
3950.4039867504216
  0
LINE
  8
_0-0_
  6
CONTINUOUS
 62
    7
 10
27468.076963682433
 20
4346.8229963972763
 11
27669.401426573058
 21
4346.8229963972763
  0
LINE
  8
_0-0_
  6
CONTINUOUS
 62
    7
 10
27468.076963682433
 20
7545.1571490313554
 11
27468.076963682433
 21
4346.8229963972763
  0
LINE
  8
_0-0_
  6
CONTINUOUS
 62
    7
 10
33467.740445523654
 20
11045.126012853674
 11
35862.985147012252
 21
11045.126012853674
  0
LINE
  8
_0-0_
  6
CONTINUOUS
 62
    7
 10
33467.740445523654
 20
7544.6696925807646
 11
33467.740445523654
 21
11045.126012853674
  0
LINE
  8
_0-0_
  6
CONTINUOUS
 62
    7
 10
32467.962316564615
 20
11346.203365841429
 11
32467.962316564615
 21
13146.204355600719
  0
LINE
  8
_0-0_
  6
CONTINUOUS
 62
    7
 10
32569.41016944679
 20
11346.203365841429
 11
32569.41016944679
 21
13146.204355600719
  0
LINE
  8
_0-0_
  6
CONTINUOUS
 62
    7
 10
33769.896636138095
 20
11346.203365841429
 11
33769.896636138095
 21
13146.204355600719
  0
LINE
  8
_0-0_
  6
CONTINUOUS
 62
    7
 10
33966.487575221705
 20
13144.900347735433
 11
33966.487575221705
 21
16346.085007126268
  0
LINE
  8
_0-0_
  6
CONTINUOUS
 62
    7
 10
32471.339870143584
 20
16346.471013249578
 11
32471.339870143584
 21
18146.470765809754
  0
LINE
  8
_0-0_
  6
CONTINUOUS
 62
    7
 10
32573.054958034209
 20
16346.471013249578
 11
32573.054958034209
 21
18146.470765809754
  0
LINE
  8
_0-0_
  6
CONTINUOUS
 62
    7
 10
33771.032384923987
 20
16346.471013249578
 11
33771.032384923987
 21
18146.470765809754
  0
LINE
  8
_0-0_
  6
CONTINUOUS
 62
    7
 10
33870.48834723395
 20
16346.471013249578
 11
33870.48834723395
 21
18146.470765809754
  0
LINE
  8
_0-0_
  6
CONTINUOUS
 62
    7
 10
33970.914273648654
 20
18145.739581133868
 11
33970.914273648654
 21
22242.474530194257
  0
LINE
  8
_0-0_
  6
CONTINUOUS
 62
    7
 10
33970.914273648654
 20
22242.474530194257
 11
6168.7632380305104
 21
22242.474530194257
  0
LINE
  8
_0-0_
  6
CONTINUOUS
 62
    7
 10
6271.5138615788646
 20
20944.672455658783
 11
6271.5138615788646
 21
19144.673940297722
  0
LINE
  8
_0-0_
  6
CONTINUOUS
 62
    7
 10
6370.3765869140625
 20
20943.239779085725
 11
6370.3765869140625
 21
19143.241263724663
  0
LINE
  8
_0-0_
  6
CONTINUOUS
 62
    7
 10
5367.5258739574529
 20
19143.178166569891
 11
5367.5258739574529
 21
18141.473718591642
  0
LINE
  8
_0-0_
  6
CONTINUOUS
 62
    7
 10
7870.9129127296255
 20
20943.239779085725
 11
7870.9129127296255
 21
19144.690023886193
  0
LINE
  8
_0-0_
  6
CONTINUOUS
 62
    7
 10
7970.7344673775342
 20
20943.239779085725
 11
7970.7344673775342
 21
19143.524582321581
  0
LINE
  8
_0-0_
  6
CONTINUOUS
 62
    7
 10
9771.0831100876276
 20
8544.3742081925684
 11
11263.773737726986
 21
8443.7880644927154
  0
LINE
  8
_0-0_
  6
CONTINUOUS
 62
    7
 10
11263.773737726986
 20
8443.7880644927154
 11
14562.351948506126
 21
8443.7880644927154
  0
LINE
  8
_0-0_
  6
CONTINUOUS
 62
    7
 10
15379.974777634081
 20
8547.0236700934329
 11
14562.351948506126
 21
8443.7880644927154
  0
LINE
  8
_0-0_
  6
CONTINUOUS
 62
    7
 10
15379.974777634081
 20
8547.0236700934329
 11
15860.719423036318
 21
8547.0236700934329
  0
LINE
  8
_0-0_
  6
CONTINUOUS
 62
    7
 10
15860.719423036318
 20
8547.0236700934329
 11
16664.140443544129
 21
8444.0552995011622
  0
LINE
  8
_0-0_
  6
CONTINUOUS
 62
    7
 10
16664.140443544129
 20
8444.0552995011622
 11
19953.444609770904
 21
8444.0552995011622
  0
LINE
  8
_0-0_
  6
CONTINUOUS
 62
    7
 10
19953.444609770904
 20
8444.0552995011622
 11
20787.491257126268
 21
8548.0220897777672
  0
LINE
  8
_0-0_
  6
CONTINUOUS
 62
    7
 10
21291.357916754645
 20
8548.0220897777672
 11
20787.491257126268
 21
8548.0220897777672
  0
LINE
  8
_0-0_
  6
CONTINUOUS
 62
    7
 10
21291.357916754645
 20
8548.0220897777672
 11
22085.488809121623
 21
8446.2674115155187
  0
LINE
  8
_0-0_
  6
CONTINUOUS
 62
    7
 10
22085.488809121623
 20
8446.2674115155187
 11
25354.577141839109
 21
8446.2674115155187
  0
LINE
  8
_0-0_
  6
CONTINUOUS
 62
    7
 10
25354.577141839109
 20
8446.2674115155187
 11
26167.174468169345
 21
8543.5984843486076
  0
LINE
  8
_0-0_
  6
CONTINUOUS
 62
    7
 10
26167.174468169345
 20
8543.5984843486076
 11
26671.526109850085
 21
8543.5984843486076
  0
LINE
  8
_0-0_
  6
CONTINUOUS
 62
    7
 10
26671.526109850085
 20
8543.5984843486076
 11
27516.127302839952
 21
8442.9944012616124
  0
LINE
  8
_0-0_
  6
CONTINUOUS
 62
    7
 10
27516.127302839952
 20
8442.9944012616124
 11
28173.745645059127
 21
8442.9944012616124
  0
LINE
  8
_0-0_
  6
CONTINUOUS
 62
    7
 10
30371.855039854308
 20
7544.6696925807646
 11
33467.740445523654
 21
7544.6696925807646
  0
LINE
  8
_0-0_
  6
CONTINUOUS
 62
    7
 10
30671.70014252534
 20
3950.4039867504216
 11
30671.70014252534
 21
7550.5420581714534
  0
LINE
  8
_0-0_
  6
CONTINUOUS
 62
    7
 10
27669.401426573058
 20
3950.4039867504216
 11
30671.70014252534
 21
3950.4039867504216
  0
LINE
  8
_0-0_
  6
CONTINUOUS
 62
    7
 10
9771.0831100876276
 20
20944.566056535052
 11
9771.0831100876276
 21
8544.3742081925684
  0
LINE
  8
_0-0_
  6
CONTINUOUS
 62
    7
 10
11251.697437183277
 20
21043.274750580658
 11
9771.0831100876276
 21
20944.566056535052
  0
LINE
  8
_0-0_
  6
CONTINUOUS
 62
    7
 10
11251.697437183277
 20
21043.274750580658
 11
14579.999356656461
 21
21043.274750580658
  0
LINE
  8
_0-0_
  6
CONTINUOUS
 62
    7
 10
15359.516453098608
 20
20946.9934411951
 11
14579.999356656461
 21
21043.274750580658
  0
LINE
  8
_0-0_
  6
CONTINUOUS
 62
    7
 10
15871.934632997256
 20
20946.9934411951
 11
15359.516453098608
 21
20946.9934411951
  0
LINE
  8
_0-0_
  6
CONTINUOUS
 62
    7
 10
16669.511124894427
 20
21044.462461729308
 11
15871.934632997256
 21
20946.9934411951
  0
LINE
  8
_0-0_
  6
CONTINUOUS
 62
    7
 10
20770.313984638939
 20
20944.615544499578
 11
19971.548544394005
 21
21043.274750580658
  0
LINE
  8
_0-0_
  6
CONTINUOUS
 62
    7
 10
21262.310955975507
 20
20944.615544499578
 11
20770.313984638939
 21
20944.615544499578
  0
LINE
  8
_0-0_
  6
CONTINUOUS
 62
    7
 10
22079.104861697637
 20
21045.650172877959
 11
21262.310955975507
 21
20944.615544499578
  0
LINE
  8
_0-0_
  6
CONTINUOUS
 62
    7
 10
22079.104861697637
 20
21045.650172877959
 11
25361.807333456505
 21
21045.650172877959
  0
LINE
  8
_0-0_
  6
CONTINUOUS
 62
    7
 10
26178.836307010137
 20
20945.805730046453
 11
25361.807333456505
 21
21045.650172877959
  0
LINE
  8
_0-0_
  6
CONTINUOUS
 62
    7
 10
26670.714507231845
 20
20945.805730046453
 11
26178.836307010137
 21
20945.805730046453
  0
LINE
  8
_0-0_
  6
CONTINUOUS
 62
    7
 10
30871.619147223395
 20
21042.505212732267
 11
32369.171967377537
 21
20944.110767261405
  0
LINE
  8
_0-0_
  6
CONTINUOUS
 62
    7
 10
27469.55665382179
 20
21044.472359322215
 11
26670.714507231845
 21
20945.805730046453
  0
LINE
  8
_0-0_
  6
CONTINUOUS
 62
    7
 10
30871.619147223395
 20
21044.472359322215
 11
27469.55665382179
 21
21044.472359322215
  0
LINE
  8
_0-0_
  6
CONTINUOUS
 62
    7
 10
6169.934865590687
 20
8542.2629279059329
 11
6169.934865590687
 21
8244.4443573822846
  0
LINE
  8
_0-0_
  6
CONTINUOUS
 62
    7
 10
6168.7632380305104
 20
22242.474530194257
 11
6168.7632380305104
 21
20944.692250844597
  0
LINE
  8
_0-0_
  6
CONTINUOUS
 62
    7
 10
32369.171967377537
 20
20944.110767261405
 11
32369.171967377537
 21
18145.739581133868
  0
LINE
  8
_0-0_
  6
CONTINUOUS
 62
    7
 10
30816.729571368243
 20
8441.7027653874575
 11
32369.171967377537
 21
8544.6637127850499
  0
LINE
  8
_0-0_
  6
CONTINUOUS
 62
    7
 10
28173.745645059127
 20
7547.2325505437084
 11
28173.745645059127
 21
9541.7020643079613
  0
LINE
  8
_0-0_
  6
CONTINUOUS
 62
    7
 10
30371.855039854308
 20
7544.6696925807646
 11
30371.855039854308
 21
9545.3264391100092
  0
LINE
  8
_0-0_
  6
CONTINUOUS
 62
    7
 10
32371.554812869512
 20
13144.900347735433
 11
34771.107441670189
 21
13144.900347735433
  0
LINE
  8
_0-0_
  6
CONTINUOUS
 62
    7
 10
32371.554812869512
 20
16346.085007126268
 11
32371.554812869512
 21
13144.900347735433
  0
LINE
  8
_0-0_
  6
CONTINUOUS
 62
    7
 10
34771.921518686657
 20
18145.739581133868
 11
32369.171967377537
 21
18145.739581133868
  0
LINE
  8
_0-0_
  6
CONTINUOUS
 62
    7
 10
32371.554812869512
 20
16346.085007126268
 11
34771.921518686657
 21
16346.085007126268
  0
LINE
  8
_0-0_
  6
CONTINUOUS
 62
    7
 10
5375.413636903505
 20
8542.2629279059329
 11
9769.4926906276396
 21
8542.2629279059329
  0
LINE
  8
_0-0_
  6
CONTINUOUS
 62
    7
 10
9770.9649575723197
 20
20944.692250844597
 11
5371.490478515625
 21
20944.692250844597
  0
LINE
  8
_0-0_
  6
CONTINUOUS
 62
    7
 10
5567.5259151974242
 20
18843.793301968963
 11
7373.9727123363591
 21
18843.793301968963
  0
LINE
  8
_0-0_
  6
CONTINUOUS
 62
    7
 10
7375.1096983213702
 20
19143.178166569891
 11
7375.1096983213702
 21
18843.793301968963
  0
LINE
  8
_0-0_
  6
CONTINUOUS
 62
    7
 10
6470.3818656302783
 20
19143.178166569891
 11
5367.5258739574529
 21
19143.178166569891
  0
LINE
  8
_0-0_
  6
CONTINUOUS
 62
    7
 10
6470.3818656302783
 20
17942.830266179266
 11
6470.3818656302783
 21
19143.178166569891
  0
LINE
  8
_0-0_
  6
CONTINUOUS
 62
    7
 10
28178.009033203125
 20
7739.3955540012666
 11
30374.126537426098
 21
7739.3955540012666
  0
LINE
  8
_0-0_
  6
CONTINUOUS
 62
    7
 10
28178.009033203125
 20
8337.8497974292659
 11
30375.905629750843
 21
8337.8497974292659
  0
LINE
  8
_0-0_
  6
CONTINUOUS
 62
    7
 10
28178.009033203125
 20
8435.8112232105159
 11
30820.547567831505
 21
8435.8112232105159
  0
LINE
  8
_0-0_
  6
CONTINUOUS
 62
    7
 10
28178.009033203125
 20
7837.3563611829613
 11
30372.344970703125
 21
7837.3563611829613
  0
LINE
  8
_0-0_
  6
CONTINUOUS
 62
    7
 10
6473.9221108926304
 20
18940.150080500425
 11
7377.7894716005048
 21
18940.150080500425
  0
LINE
  8
_0-0_
  6
CONTINUOUS
 62
    7
 10
3572.0814885319896
 20
7945.5667444177579
 11
3667.8886413574219
 21
7945.5667444177579
  0
LINE
  8
_0-0_
  6
CONTINUOUS
 62
    7
 10
3572.0814885319896
 20
7945.5667444177579
 11
3572.0814885319896
 21
7344.6238749736067
  0
LINE
  8
_0-0_
  6
CONTINUOUS
 62
    7
 10
4667.219832136826
 20
7544.528651881863
 11
28172.619793866135
 21
7544.528651881863
  0
LINE
  8
_0-0_
  6
CONTINUOUS
 62
    7
 10
4667.219832136826
 20
7945.5667444177579
 11
4667.219832136826
 21
7544.528651881863
  0
LINE
  8
_0-0_
  6
CONTINUOUS
 62
    7
 10
4571.5438224173877
 20
8244.4443573822846
 11
4571.5438224173877
 21
7945.5667444177579
  0
LINE
  8
_0-0_
  6
CONTINUOUS
 62
    7
 10
4571.5438224173877
 20
7945.5667444177579
 11
4667.219832136826
 21
7945.5667444177579
  0
LINE
  8
_0-0_
  6
CONTINUOUS
 62
    7
 10
3667.8886413574219
 20
7045.5699611354521
 11
3667.8886413574219
 21
8244.6231326541401
  0
LINE
  8
_0-0_
  6
CONTINUOUS
 62
    7
 10
3667.8886413574219
 20
8244.6231326541401
 11
3271.5447915566929
 21
8244.6231326541401
  0
LINE
  8
_0-0_
  6
CONTINUOUS
 62
    7
 10
3269.2680358886719
 20
7344.6238749736067
 11
3572.0814885319896
 21
7344.6238749736067
  0
LINE
  8
_0-0_
  6
CONTINUOUS
 62
    7
 10
9766.1955549910253
 20
19143.178166569891
 11
6470.3818656302783
 21
19143.178166569891
  0
LINE
  8
_0-0_
  6
CONTINUOUS
 62
    4
 10
9771.0831100876276
 20
4238.91881994299
 11
9771.0831100876276
 21
3438.9189642828869
  0
LINE
  8
_0-0_
  6
CONTINUOUS
 62
    4
 10
32371.554812869512
 20
4238.91881994299
 11
32371.554812869512
 21
3438.9189642828869
  0
LINE
  8
_0-0_
  6
CONTINUOUS
 62
    4
 10
9611.0829533757387
 20
3638.9190055228569
 11
9771.0831100876276
 21
3638.9190055228569
  0
LINE
  8
_0-0_
  6
CONTINUOUS
 62
    4
 10
32371.554812869512
 20
3638.9190055228569
 11
32531.554350981845
 21
3638.9190055228569
  0
LINE
  8
_0-0_
  6
CONTINUOUS
 62
    4
 10
9771.0831100876276
 20
3638.9190055228569
 11
32371.554812869512
 21
3638.9190055228569
  0
LINE
  8
_0-0_
  6
CONTINUOUS
 62
    4
 10
9658.8295601509708
 20
3526.6657648859791
 11
9883.3360414247272
 21
3751.1722461597346
  0
LINE
  8
_0-0_
  6
CONTINUOUS
 62
    4
 10
32259.301262932855
 20
3526.6657648859791
 11
32483.808362806165
 21
3751.1722461597346
  0
LINE
  8
_0-0_
  6
CONTINUOUS
 62
    4
 10
9771.0831100876276
 20
5278.9189106709246
 11
9771.0831100876276
 21
4478.9190550108215
  0
LINE
  8
_0-0_
  6
CONTINUOUS
 62
    4
 10
14721.08335752745
 20
5278.9189106709246
 11
14721.08335752745
 21
4478.9190550108215
  0
LINE
  8
_0-0_
  6
CONTINUOUS
 62
    4
 10
9611.0829533757387
 20
4678.9187869510133
 11
9771.0831100876276
 21
4678.9187869510133
  0
LINE
  8
_0-0_
  6
CONTINUOUS
 62
    4
 10
14721.08335752745
 20
4678.9187869510133
 11
14881.082895639782
 21
4678.9187869510133
  0
LINE
  8
_0-0_
  6
CONTINUOUS
 62
    4
 10
9771.0831100876276
 20
4678.9187869510133
 11
14721.08335752745
 21
4678.9187869510133
  0
LINE
  8
_0-0_
  6
CONTINUOUS
 62
    4
 10
9658.8295601509708
 20
4566.6658556139137
 11
9883.3360414247272
 21
4791.1720275878906
  0
LINE
  8
_0-0_
  6
CONTINUOUS
 62
    4
 10
14608.829807590795
 20
4566.6658556139137
 11
14833.335670264993
 21
4791.1720275878906
  0
LINE
  8
_0-0_
  6
CONTINUOUS
 62
    4
 10
4580.0000783559426
 20
20946.9934411951
 11
3779.9999133960628
 21
20946.9934411951
  0
LINE
  8
_0-0_
  6
CONTINUOUS
 62
    4
 10
4580.0000783559426
 20
18956.993309227197
 11
3779.9999133960628
 21
18956.993309227197
  0
LINE
  8
_0-0_
  6
CONTINUOUS
 62
    4
 10
3979.9999546360314
 20
21106.992979307433
 11
3979.9999546360314
 21
20946.9934411951
  0
LINE
  8
_0-0_
  6
CONTINUOUS
 62
    4
 10
3979.9999546360314
 20
18956.993309227197
 11
3979.9999546360314
 21
18796.993771114863
  0
LINE
  8
_0-0_
  6
CONTINUOUS
 62
    4
 10
3979.9999546360314
 20
20946.9934411951
 11
3979.9999546360314
 21
18956.993309227197
  0
LINE
  8
_0-0_
  6
CONTINUOUS
 62
    4
 10
3867.7467139991563
 20
21059.246991131757
 11
4092.2531952729114
 21
20834.739891258447
  0
LINE
  8
_0-0_
  6
CONTINUOUS
 62
    4
 10
3867.7467139991563
 20
19069.24685916385
 11
4092.2531952729114
 21
18844.73975929054
  0
LINE
  8
_0-0_
  6
CONTINUOUS
 62
    4
 10
4580.0000783559426
 20
18955.992415144639
 11
3779.9999133960628
 21
18955.992415144639
  0
LINE
  8
_0-0_
  6
CONTINUOUS
 62
    4
 10
4580.0000783559426
 20
10535.992596600508
 11
3779.9999133960628
 21
10535.992596600508
  0
LINE
  8
_0-0_
  6
CONTINUOUS
 62
    4
 10
3979.9999546360314
 20
19115.991953256969
 11
3979.9999546360314
 21
18955.992415144639
  0
LINE
  8
_0-0_
  6
CONTINUOUS
 62
    4
 10
3979.9999546360314
 20
10535.992596600508
 11
3979.9999546360314
 21
10375.99243988862
  0
LINE
  8
_0-0_
  6
CONTINUOUS
 62
    4
 10
3979.9999546360314
 20
18955.992415144639
 11
3979.9999546360314
 21
10535.992596600508
  0
LINE
  8
_0-0_
  6
CONTINUOUS
 62
    4
 10
3867.7467139991563
 20
19068.245965081296
 11
4092.2531952729114
 21
18843.738865207983
  0
LINE
  8
_0-0_
  6
CONTINUOUS
 62
    4
 10
3867.7467139991563
 20
10648.244909338049
 11
4092.2531952729114
 21
10423.739046663852
  0
LINE
  8
_0-0_
  6
CONTINUOUS
 62
    4
 10
4580.0000783559426
 20
10537.289181271117
 11
3779.9999133960628
 21
10537.289181271117
  0
LINE
  8
_0-0_
  6
CONTINUOUS
 62
    4
 10
4580.0000783559426
 20
8547.0236700934329
 11
3779.9999133960628
 21
8547.0236700934329
  0
LINE
  8
_0-0_
  6
CONTINUOUS
 62
    4
 10
3979.9999546360314
 20
10697.289956582559
 11
3979.9999546360314
 21
10537.289181271117
  0
LINE
  8
_0-0_
  6
CONTINUOUS
 62
    4
 10
3979.9999546360314
 20
8547.0236700934329
 11
3979.9999546360314
 21
8387.024131981103
  0
LINE
  8
_0-0_
  6
CONTINUOUS
 62
    4
 10
3979.9999546360314
 20
10537.289181271117
 11
3979.9999546360314
 21
8547.0236700934329
  0
LINE
  8
_0-0_
  6
CONTINUOUS
 62
    4
 10
3867.7467139991563
 20
10649.54273120777
 11
4092.2531952729114
 21
10425.03563133446
  0
LINE
  8
_0-0_
  6
CONTINUOUS
 62
    4
 10
3867.7467139991563
 20
8659.2772200300878
 11
4092.2531952729114
 21
8434.770738756335
  0
LINE
  8
_0-0_
  6
CONTINUOUS
 62
    4
 10
3439.9999670080233
 20
20946.9934411951
 11
2640.0001113479193
 21
20946.9934411951
  0
LINE
  8
_0-0_
  6
CONTINUOUS
 62
    4
 10
3439.9999670080233
 20
8547.0236700934329
 11
2640.0001113479193
 21
8547.0236700934329
  0
LINE
  8
_0-0_
  6
CONTINUOUS
 62
    4
 10
2840.0001525878906
 20
21106.992979307433
 11
2840.0001525878906
 21
20946.9934411951
  0
LINE
  8
_0-0_
  6
CONTINUOUS
 62
    4
 10
2840.0001525878906
 20
8547.0236700934329
 11
2840.0001525878906
 21
8387.024131981103
  0
LINE
  8
_0-0_
  6
CONTINUOUS
 62
    4
 10
2840.0001525878906
 20
20946.9934411951
 11
2840.0001525878906
 21
8547.0236700934329
  0
LINE
  8
_0-0_
  6
CONTINUOUS
 62
    4
 10
2727.7469119510129
 20
21059.246991131757
 11
2952.2530839249894
 21
20834.739891258447
  0
LINE
  8
_0-0_
  6
CONTINUOUS
 62
    4
 10
2727.7469119510129
 20
8659.2772200300878
 11
2952.2530839249894
 21
8434.770738756335
  0
LINE
  8
_0-3_
  6
CONTINUOUS
 62
    7
 10
10220.24948532517
 20
21098.807669974663
 11
10220.24948532517
 21
21742.549586940459
  0
LINE
  8
_0-3_
  6
CONTINUOUS
 62
    7
 10
9920.5769719304262
 20
21103.246740392737
 11
9920.5769719304262
 21
21445.097227354308
  0
LINE
  8
_0-3_
  6
CONTINUOUS
 62
    7
 10
10921.704266522383
 20
21101.027205183702
 11
10921.704266522383
 21
21542.766674144848
  0
LINE
  8
_0-3_
  6
CONTINUOUS
 62
    7
 10
11716.391898490288
 20
21101.027205183702
 11
11716.391898490288
 21
21442.87769214527
  0
LINE
  8
_0-3_
  6
CONTINUOUS
 62
    7
 10
12016.065030484588
 20
21101.027205183702
 11
12016.065030484588
 21
21742.549586940459
  0
LINE
  8
_0-3_
  6
CONTINUOUS
 62
    7
 10
12369.01195629223
 20
21101.027205183702
 11
12369.01195629223
 21
21742.549586940459
  0
LINE
  8
_0-3_
  6
CONTINUOUS
 62
    7
 10
12768.57530748522
 20
21096.588134765625
 11
12768.57530748522
 21
21542.766674144848
  0
LINE
  8
_0-3_
  6
CONTINUOUS
 62
    7
 10
13270.249650285052
 20
21098.807669974663
 11
13270.249650285052
 21
21740.33005173142
  0
LINE
  8
_0-3_
  6
CONTINUOUS
 62
    7
 10
13769.704457875847
 20
21096.588134765625
 11
13769.704457875847
 21
21742.549586940459
  0
LINE
  8
_0-3_
  6
CONTINUOUS
 62
    7
 10
14415.665910050677
 20
21096.588134765625
 11
14415.665910050677
 21
21544.988683752112
  0
LINE
  8
_0-3_
  6
CONTINUOUS
 62
    7
 10
14917.339015651392
 20
21105.46875
 11
14917.339015651392
 21
21742.549586940459
  0
LINE
  8
_0-3_
  6
CONTINUOUS
 62
    7
 10
16371.306548247467
 20
21094.36859955659
 11
16371.306548247467
 21
21544.988683752112
  0
LINE
  8
_0-3_
  6
CONTINUOUS
 62
    7
 10
17669.888058224238
 20
21098.807669974663
 11
17669.888058224238
 21
21746.988657358532
  0
LINE
  8
_0-3_
  6
CONTINUOUS
 62
    7
 10
19072.800095016893
 20
21089.929529138517
 11
19072.800095016893
 21
21544.988683752112
  0
LINE
  8
_0-3_
  6
CONTINUOUS
 62
    7
 10
20371.380367794554
 20
21096.588134765625
 11
20371.380367794554
 21
21740.33005173142
  0
LINE
  8
_0-3_
  6
CONTINUOUS
 62
    7
 10
21772.071632179053
 20
21092.149064347552
 11
21772.071632179053
 21
21540.547138935814
  0
LINE
  8
_0-3_
  6
CONTINUOUS
 62
    7
 10
23117.270804740288
 20
21098.807669974663
 11
23117.270804740288
 21
21742.549586940459
  0
LINE
  8
_0-3_
  6
CONTINUOUS
 62
    7
 10
24517.960831925677
 20
21094.36859955659
 11
24517.960831925677
 21
21544.988683752112
  0
LINE
  8
_0-3_
  6
CONTINUOUS
 62
    7
 10
25869.81861011402
 20
21096.588134765625
 11
25869.81861011402
 21
21740.33005173142
  0
LINE
  8
_0-3_
  6
CONTINUOUS
 62
    7
 10
27268.289102090377
 20
21098.807669974663
 11
27268.289102090377
 21
21542.766674144848
  0
LINE
  8
_0-3_
  6
CONTINUOUS
 62
    7
 10
28615.69791226774
 20
21091.577478357267
 11
28615.69791226774
 21
21742.683204444678
  0
LINE
  8
_0-3_
  6
CONTINUOUS
 62
    7
 10
30015.039392419767
 20
21091.577478357267
 11
30015.039392419767
 21
21541.237496040965
  0
LINE
  8
_0-3_
  6
CONTINUOUS
 62
    7
 10
31371.214995513095
 20
21098.770554001268
 11
31371.214995513095
 21
21843.408533044767
  0
LINE
  8
_0-3_
  6
CONTINUOUS
 62
    7
 10
32472.831932274072
 20
20190.298956793707
 11
32969.423861116979
 21
20190.298956793707
  0
LINE
  8
_0-3_
  6
CONTINUOUS
 62
    7
 10
32476.77364864865
 20
9296.7787046690246
 11
32969.423861116979
 21
9296.7787046690246
  0
LINE
  8
_0-2_
  6
DASHED2
 62
    6
 10
31868.450267894848
 20
8520.782676902978
 11
31868.450267894848
 21
20973.343307907518
  0
LINE
  8
_0-2_
  6
DASHED2
 62
    6
 10
30068.451752533787
 20
8440.0906949429918
 11
30068.451752533787
 21
21040.345063080658
  0
LINE
  8
_0-2_
  6
DASHED2
 62
    6
 10
28268.450762774493
 20
8437.2086396088471
 11
28268.450762774493
 21
21041.770316459038
  0
LINE
  8
_0-2_
  6
DASHED2
 62
    6
 10
26468.452247413432
 20
8549.6007558461788
 11
26468.452247413432
 21
20941.982784786742
  0
LINE
  8
_0-2_
  6
DASHED2
 62
    6
 10
24668.451257654142
 20
8451.6182976800046
 11
24668.451257654142
 21
21043.195569837415
  0
LINE
  8
_0-2_
  6
DASHED2
 62
    6
 10
22868.450267894848
 20
8451.6182976800046
 11
22868.450267894848
 21
21036.0668285473
  0
LINE
  8
_0-2_
  6
DASHED2
 62
    6
 10
21068.451752533783
 20
8552.4828111803217
 11
21068.451752533783
 21
20939.132278029985
  0
LINE
  8
_0-2_
  6
DASHED2
 62
    6
 10
19268.450762774493
 20
8448.7362423458617
 11
19268.450762774493
 21
21036.0668285473
  0
LINE
  8
_0-2_
  6
DASHED2
 62
    6
 10
17468.451010214318
 20
8445.8541870117187
 11
17468.451010214318
 21
21037.492081925677
  0
LINE
  8
_0-2_
  6
DASHED2
 62
    6
 10
15668.451257654138
 20
8552.4828111803217
 11
15668.451257654138
 21
20941.982784786742
  0
LINE
  8
_0-2_
  6
DASHED2
 62
    6
 10
13868.451505093961
 20
8454.4997344145904
 11
13868.451505093961
 21
21038.919809702282
  0
LINE
  8
_0-2_
  6
DASHED2
 62
    6
 10
12068.450515334671
 20
8451.6182976800046
 11
12068.450515334671
 21
21038.919809702282
  0
LINE
  8
_0-2_
  6
DASHED2
 62
    6
 10
10268.451999973608
 20
8515.0185662346921
 11
10268.451999973608
 21
20974.768561285895
  0
LINE
  8
_0-2_
  6
DASHED2
 62
    6
 10
9776.6053483292872
 20
9342.953449970968
 11
32367.387926256339
 21
9342.953449970968
  0
LINE
  8
_0-2_
  6
DASHED2
 62
    6
 10
9779.486785063873
 20
11142.953821130703
 11
32370.270600190037
 21
11142.953821130703
  0
LINE
  8
_0-2_
  6
DASHED2
 62
    6
 10
9773.7232929951442
 20
12942.95357369088
 11
32341.906573321368
 21
12942.95357369088
  0
LINE
  8
_0-2_
  6
DASHED2
 62
    6
 10
9779.486785063873
 20
14742.953326251058
 11
32370.676401499157
 21
14742.953326251058
  0
LINE
  8
_0-2_
  6
DASHED2
 62
    6
 10
9776.6053483292872
 20
16542.954316010346
 11
32369.25114812078
 21
16542.954316010346
  0
LINE
  8
_0-2_
  6
DASHED2
 62
    6
 10
9779.486785063873
 20
18342.954068570525
 11
32367.8258947424
 21
18342.954068570525
  0
LINE
  8
_0-2_
  6
DASHED2
 62
    6
 10
9779.486785063873
 20
20142.953821130704
 11
32366.40064136402
 21
20142.953821130704
  0
LINE
  8
_0-1_
  6
DASHED1
 62
    5
 10
14723.096280484586
 20
18957.162805505704
 11
9823.0968166042021
 21
18957.162805505704
  0
LINE
  8
_0-1_
  6
DASHED1
 62
    5
 10
9823.0968166042021
 20
18957.162805505704
 11
9823.0968166042021
 21
10537.162986961572
  0
LINE
  8
_0-1_
  6
DASHED1
 62
    5
 10
9823.0968166042021
 20
10537.162986961572
 11
14723.096280484586
 21
10537.162986961572
  0
LINE
  8
_0-1_
  6
DASHED1
 62
    5
 10
14723.096280484586
 20
10537.162986961572
 11
14723.096280484586
 21
18957.162805505704
  0
LINE
  8
_0-1_
  6
DASHED1
 62
    5
 10
9821.7272371859162
 20
18955.992415144639
 11
14721.726701066302
 21
18955.992415144639
  0
LINE
  8
_0-1_
  6
DASHED1
 62
    5
 10
14721.726701066302
 20
10537.289181271117
 11
9821.7272371859162
 21
10537.289181271117
  0
LINE
  8
_0-1_
  6
DASHED1
 62
    5
 10
14721.726701066302
 20
8484.070030418603
 11
14588.818111935178
 21
8467.288661647488
  0
LINE
  8
_0-1_
  6
DASHED1
 62
    5
 10
14721.726701066302
 20
8484.070030418603
 11
14721.726701066302
 21
10537.289181271117
  0
LINE
  8
_0-1_
  6
DASHED1
 62
    5
 10
9821.7272371859162
 20
10537.289181271117
 11
9821.7272371859162
 21
8561.0064944705464
  0
LINE
  8
_0-1_
  6
DASHED1
 62
    5
 10
11212.49802048142
 20
8467.288661647488
 11
14588.818111935178
 21
8467.288661647488
  0
LINE
  8
_0-1_
  6
DASHED1
 62
    5
 10
9821.7272371859162
 20
8561.0064944705464
 11
11212.49802048142
 21
8467.288661647488
  0
LINE
  8
_0-1_
  6
DASHED1
 62
    5
 10
14721.726701066302
 20
18955.992415144639
 11
14721.726701066302
 21
21005.616883973817
  0
LINE
  8
_0-1_
  6
DASHED1
 62
    5
 10
14721.726701066302
 20
21005.616883973817
 11
14556.751148120778
 21
21025.993553367822
  0
LINE
  8
_0-1_
  6
DASHED1
 62
    5
 10
9821.7272371859162
 20
20927.898510082348
 11
9821.7272371859162
 21
18955.992415144639
  0
LINE
  8
_0-1_
  6
DASHED1
 62
    5
 10
11293.154742266681
 20
21025.993553367822
 11
9821.7272371859162
 21
20927.898510082348
  0
LINE
  8
_0-1_
  6
DASHED1
 62
    5
 10
14556.751148120778
 20
21025.993553367822
 11
11293.154742266681
 21
21025.993553367822
  0
ARC
  8
_0-0_
  6
CONTINUOUS
 62
    7
 10
7871.96515057538
 20
10342.64002619563
 40
899.9999536050334
 50
179.84597778320312
 51
270
  0
ARC
  8
_0-0_
  6
CONTINUOUS
 62
    7
 10
30374.717918602197
 20
7838.6034578890412
 40
1099.9999175200592
 50
89.950210571289063
 51
184.89170837402344
  0
ARC
  8
_0-0_
  6
CONTINUOUS
 62
    7
 10
28178.009033203125
 20
7741.1765021246838
 40
1099.9999175200592
 50
0.092681884765625
 51
89.999984741210937
  0
ARC
  8
_0-0_
  6
CONTINUOUS
 62
    7
 10
28178.009033203125
 20
8435.8112232105159
 40
1099.9999175200592
 50
0.092681884765625
 51
89.999984741210937
  0
ARC
  8
_0-0_
  6
CONTINUOUS
 62
    7
 10
30373.661350559549
 20
8439.4368352116762
 40
1099.9999175200592
 50
89.895309448242188
 51
179.88960266113281
  0
ARC
  8
_0-0_
  6
CONTINUOUS
 62
    7
 10
33879.967766839101
 20
11341.628203520904
 40
899.9999536050334
 50
0.1600189208984375
 51
90
  0
ARC
  8
_0-0_
  6
CONTINUOUS
 62
    7
 10
32571.055644267319
 20
13139.805561787376
 40
899.9999536050334
 50
270.15037536621094
 51
359.94932556152344
  0
ARC
  8
_0-0_
  6
CONTINUOUS
 62
    7
 10
32576.100942250843
 20
11344.149615313556
 40
899.9999536050334
 50
359.76960754394531
 51
89.835342407226548
  0
ARC
  8
_0-0_
  6
CONTINUOUS
 62
    7
 10
33874.922468855577
 20
13139.805561787376
 40
899.9999536050334
 50
270.32278442382812
 51
359.94931030273437
  0
ARC
  8
_0-0_
  6
CONTINUOUS
 62
    7
 10
32576.365702861069
 20
18138.113485800255
 40
899.9999536050334
 50
270.11886596679687
 51
0
  0
ARC
  8
_0-0_
  6
CONTINUOUS
 62
    7
 10
32578.525852512674
 20
16340.143976984797
 40
899.9999536050334
 50
0.4131622314453125
 51
90
  0
ARC
  8
_0-0_
  6
CONTINUOUS
 62
    7
 10
33875.739020270274
 20
18138.113485800255
 40
899.9999536050334
 50
270
 51
0.1104583740234446
  0
ARC
  8
_0-0_
  6
CONTINUOUS
 62
    7
 10
33875.739020270274
 20
16340.143976984797
 40
899.9999536050334
 50
0.003204345703125
 51
90
  0
ARC
  8
_0-0_
  6
CONTINUOUS
 62
    7
 10
6279.2247050517317
 20
10342.64002619563
 40
899.9999536050334
 50
180.12673950195312
 51
270
  0
ARC
  8
_0-0_
  6
CONTINUOUS
 62
    7
 10
7874.3820190429687
 20
8539.6289309939839
 40
899.9999536050334
 50
89.999984741210937
 51
179.84638977050781
  0
ARC
  8
_0-0_
  6
CONTINUOUS
 62
    7
 10
6279.2247050517317
 20
8539.6289309939839
 40
899.9999536050334
 50
89.999984741210937
 51
180.20732116699222
  0
ARC
  8
_0-0_
  6
CONTINUOUS
 62
    7
 10
6275.3046396616355
 20
19135.200706688134
 40
899.9999536050334
 50
89.999984741210937
 51
179.53607177734372
  0
ARC
  8
_0-0_
  6
CONTINUOUS
 62
    7
 10
7871.6453346046255
 20
20940.238334037163
 40
899.9999536050334
 50
180
 51
270
  0
ARC
  8
_0-0_
  6
CONTINUOUS
 62
    7
 10
6275.3046396616355
 20
20936.576224662163
 40
899.9999536050334
 50
179.8582763671875
 51
270
  0
ARC
  8
_0-0_
  6
CONTINUOUS
 62
    7
 10
7875.3068253800675
 20
19135.200706688134
 40
899.9999536050334
 50
90.259246826171875
 51
179.86717224121094
  0
ARC
  8
_0-0_
  6
CONTINUOUS
 62
    7
 10
6476.870974978885
 20
18836.934270085516
 40
899.9999536050334
 50
269.82986450195312
 51
0.0939178466796982
  0
ARC
  8
_0-0_
  6
CONTINUOUS
 62
    7
 10
5375.4210600981851
 20
18135.073687579181
 40
899.9999536050334
 50
90
 51
270
  0
ARC
  8
_0-0_
  6
CONTINUOUS
 62
    7
 10
5369.5227133261196
 20
16339.134422508449
 40
899.9999536050334
 50
90
 51
270
  0
ARC
  8
_0-0_
  6
CONTINUOUS
 62
    7
 10
3669.9838380555861
 20
7945.5667444177579
 40
899.9999536050334
 50
269.86659240722656
 51
359.71206665039063
  0
TEXT
  8
_0-0_
 62
    4
 10
6587.8594888223179
 20
16237.651928051098
 40
250
 41
1
 50
0
  1
備品庫
  0
TEXT
  8
_0-0_
 62
    4
 10
28597.73048194679
 20
6388.9382852090375
 40
250
 41
1
 50
0
  1
ピアノ庫
  0
TEXT
  8
_0-0_
 62
    3
 10
16917.512223527239
 20
24864.16873416385
 40
500
 41
1
 50
0
  1
多目的スタジオ平面図（A3 1/100）
  0
TEXT
  8
_0-0_
 62
    4
 10
20758.818342879011
 20
3788.9188818029452
 40
250
 41
1
 50
0
  1
22600
  0
TEXT
  8
_0-0_
 62
    4
 10
11996.08323380754
 20
4828.9189725308806
 40
250
 41
1
 50
0
  1
4950
  0
TEXT
  8
_0-0_
 62
    4
 10
3830.0000892837916
 20
19701.99337521115
 40
250
 41
1
 50
90.000002504478147
  1
1990
  0
TEXT
  8
_0-0_
 62
    4
 10
3830.0000892837916
 20
14495.992505872573
 40
250
 41
1
 50
90.000002504478147
  1
8420
  0
TEXT
  8
_0-0_
 62
    4
 10
3830.0000892837916
 20
9292.1564256822749
 40
250
 41
1
 50
90.000002504478147
  1
1990
  0
TEXT
  8
_0-0_
 62
    4
 10
2689.9999806678325
 20
14434.508246344489
 40
250
 41
1
 50
90.00000250447809
  1
12400
  0
TEXT
  8
_0-3_
 62
    4
 10
12258.334927945523
 20
21719.079919763517
 40
200
 41
1
 50
0
  1
B3
  0
TEXT
  8
_0-3_
 62
    4
 10
9810.8405242095123
 20
21423.488307643584
 40
200
 41
1
 50
0
  1
Sc
  0
TEXT
  8
_0-3_
 62
    4
 10
10114.314331879486
 20
21723.021636138092
 40
200
 41
1
 50
0
  1
B1
  0
TEXT
  8
_0-3_
 62
    4
 10
10815.849840318837
 20
21510.196170291387
 40
200
 41
1
 50
0
  1
L1
  0
TEXT
  8
_0-3_
 62
    4
 10
11592.270227380701
 20
21423.488307643584
 40
200
 41
1
 50
0
  1
UH
  0
TEXT
  8
_0-3_
 62
    4
 10
11907.566709776182
 20
21715.138203388939
 40
200
 41
1
 50
0
  1
B2
  0
TEXT
  8
_0-3_
 62
    4
 10
12664.280989363388
 20
21518.077128642315
 40
200
 41
1
 50
0
  1
L2
  0
TEXT
  8
_0-3_
 62
    4
 10
13160.874155405407
 20
21719.079919763517
 40
200
 41
1
 50
0
  1
B4
  0
TEXT
  8
_0-3_
 62
    4
 10
13657.467321447424
 20
21719.079919763517
 40
200
 41
1
 50
0
  1
B5
  0
TEXT
  8
_0-3_
 62
    4
 10
14303.825914537587
 20
21518.077128642315
 40
200
 41
1
 50
0
  1
L3
  0
TEXT
  8
_0-3_
 62
    4
 10
14816.184708878802
 20
21715.138203388939
 40
200
 41
1
 50
0
  1
B6
  0
TEXT
  8
_0-3_
 62
    4
 10
16258.66979650549
 20
21514.135412267737
 40
200
 41
1
 50
0
  1
L4
  0
TEXT
  8
_0-3_
 62
    4
 10
17567.152610985009
 20
21723.021636138092
 40
200
 41
1
 50
0
  1
B7
  0
TEXT
  8
_0-3_
 62
    4
 10
18962.343288112334
 20
21522.018845016893
 40
200
 41
1
 50
0
  1
L5
  0
TEXT
  8
_0-3_
 62
    4
 10
20259.002809266785
 20
21719.079919763517
 40
200
 41
1
 50
0
  1
B8
  0
TEXT
  8
_0-3_
 62
    4
 10
21662.077537742822
 20
21514.135412267737
 40
200
 41
1
 50
0
  1
L6
  0
TEXT
  8
_0-3_
 62
    4
 10
23006.032087996202
 20
21719.079919763517
 40
200
 41
1
 50
0
  1
B9
  0
TEXT
  8
_0-3_
 62
    4
 10
24409.104960673565
 20
21518.077128642315
 40
200
 41
1
 50
0
  1
L7
  0
TEXT
  8
_0-3_
 62
    4
 10
25689.999637088262
 20
21719.079919763517
 40
200
 41
1
 50
0
  1
B10
  0
TEXT
  8
_0-3_
 62
    4
 10
27152.19066722973
 20
21514.135412267737
 40
200
 41
1
 50
0
  1
L8
  0
TEXT
  8
_0-3_
 62
    4
 10
28421.261431719806
 20
21719.079919763517
 40
200
 41
1
 50
0
  1
B11
  0
TEXT
  8
_0-3_
 62
    4
 10
29903.159806535052
 20
21518.077128642315
 40
200
 41
1
 50
0
  1
L9
  0
TEXT
  8
_0-3_
 62
    4
 10
31180.111529376056
 20
21821.552173511405
 40
200
 41
1
 50
0
  1
B12
  0
TEXT
  8
_0-3_
 62
    4
 10
32973.365495011618
 20
20063.769366290118
 40
200
 41
1
 50
0
  1
L10/L11
  0
TEXT
  8
_0-3_
 62
    4
 10
32974.135032860009
 20
9167.2928268845026
 40
200
 41
1
 50
0
  1
L12/L13
  0
ENDSEC
  0
EOF
