  0
SECTION
  2
HEADER
  9
$ACADVER
  1
AC1009
  9
$DWGCODEPAGE
  3
dos932
  9
$INSBASE
 10
0.0
 20
0.0
 30
0.0
  9
$EXTMIN
 10
-16214.98967066765
 20
-5241.299927291944
 30
0.0
  9
$EXTMAX
 10
16462.08361410932
 20
17619.98560282658
 30
0.0
  9
$LIMMIN
 10
0.0
 20
0.0
  9
$LIMMAX
 10
12.0
 20
9.0
  9
$ORTHOMODE
 70
     0
  9
$REGENMODE
 70
     1
  9
$FILLMODE
 70
     1
  9
$QTEXTMODE
 70
     0
  9
$MIRRTEXT
 70
     1
  9
$DRAGMODE
 70
     2
  9
$LTSCALE
 40
508.0
  9
$OSMODE
 70
    37
  9
$ATTMODE
 70
     1
  9
$TEXTSIZE
 40
0.2
  9
$TRACEWID
 40
1.0
  9
$TEXTSTYLE
  7
STANDARD
  9
$CLAYER
  8
__
  9
$CELTYPE
  6
BYLAYER
  9
$CECOLOR
 62
   256
  9
$DIMSCALE
 40
1.0
  9
$DIMASZ
 40
0.18
  9
$DIMEXO
 40
0.0625
  9
$DIMDLI
 40
0.38
  9
$DIMRND
 40
0.0
  9
$DIMDLE
 40
0.0
  9
$DIMEXE
 40
0.18
  9
$DIMTP
 40
0.0
  9
$DIMTM
 40
0.0
  9
$DIMTXT
 40
0.18
  9
$DIMCEN
 40
0.09
  9
$DIMTSZ
 40
0.0
  9
$DIMTOL
 70
     0
  9
$DIMLIM
 70
     0
  9
$DIMTIH
 70
     1
  9
$DIMTOH
 70
     1
  9
$DIMSE1
 70
     0
  9
$DIMSE2
 70
     0
  9
$DIMTAD
 70
     0
  9
$DIMZIN
 70
     0
  9
$DIMBLK
  1

  9
$DIMASO
 70
     1
  9
$DIMSHO
 70
     1
  9
$DIMPOST
  1

  9
$DIMAPOST
  1

  9
$DIMALT
 70
     0
  9
$DIMALTD
 70
     2
  9
$DIMALTF
 40
25.4
  9
$DIMLFAC
 40
1.0
  9
$DIMTOFL
 70
     0
  9
$DIMTVP
 40
0.0
  9
$DIMTIX
 70
     0
  9
$DIMSOXD
 70
     0
  9
$DIMSAH
 70
     0
  9
$DIMBLK1
  1

  9
$DIMBLK2
  1

  9
$DIMSTYLE
  2
STANDARD
  9
$DIMCLRD
 70
     0
  9
$DIMCLRE
 70
     0
  9
$DIMCLRT
 70
     0
  9
$DIMTFAC
 40
1.0
  9
$DIMGAP
 40
0.09
  9
$LUNITS
 70
     2
  9
$LUPREC
 70
     1
  9
$SKETCHINC
 40
0.1
  9
$FILLETRAD
 40
0.5
  9
$AUNITS
 70
     0
  9
$AUPREC
 70
     2
  9
$MENU
  1
.
  9
$ELEVATION
 40
0.0
  9
$PELEVATION
 40
0.0
  9
$THICKNESS
 40
0.0
  9
$LIMCHECK
 70
     0
  9
$CHAMFERA
 40
0.0
  9
$CHAMFERB
 40
0.0
  9
$SKPOLY
 70
     0
  9
$TDCREATE
 40
2458248.458758229
  9
$TDUPDATE
 40
2458248.45876441
  9
$TDINDWG
 40
0.0000000116
  9
$TDUSRTIMER
 40
0.0000000116
  9
$USRTIMER
 70
     1
  9
$ANGBASE
 50
0.0
  9
$ANGDIR
 70
     0
  9
$PDMODE
 70
     1
  9
$PDSIZE
 40
-2.0
  9
$PLINEWID
 40
0.0
  9
$COORDS
 70
     1
  9
$SPLFRAME
 70
     0
  9
$SPLINETYPE
 70
     6
  9
$SPLINESEGS
 70
     8
  9
$ATTDIA
 70
     0
  9
$ATTREQ
 70
     1
  9
$HANDLING
 70
     1
  9
$HANDSEED
  5
481
  9
$SURFTAB1
 70
     6
  9
$SURFTAB2
 70
     6
  9
$SURFTYPE
 70
     6
  9
$SURFU
 70
     6
  9
$SURFV
 70
     6
  9
$UCSNAME
  2

  9
$UCSORG
 10
0.0
 20
0.0
 30
0.0
  9
$UCSXDIR
 10
1.0
 20
0.0
 30
0.0
  9
$UCSYDIR
 10
0.0
 20
1.0
 30
0.0
  9
$PUCSNAME
  2

  9
$PUCSORG
 10
0.0
 20
0.0
 30
0.0
  9
$PUCSXDIR
 10
1.0
 20
0.0
 30
0.0
  9
$PUCSYDIR
 10
0.0
 20
1.0
 30
0.0
  9
$USERI1
 70
     0
  9
$USERI2
 70
     0
  9
$USERI3
 70
     0
  9
$USERI4
 70
     0
  9
$USERI5
 70
     0
  9
$USERR1
 40
0.0
  9
$USERR2
 40
0.0
  9
$USERR3
 40
0.0
  9
$USERR4
 40
0.0
  9
$USERR5
 40
0.0
  9
$WORLDVIEW
 70
     1
  9
$SHADEDGE
 70
     3
  9
$SHADEDIF
 70
    70
  9
$TILEMODE
 70
     1
  9
$MAXACTVP
 70
    64
  9
$PLIMCHECK
 70
     0
  9
$PEXTMIN
 10
1.000000000000000E+20
 20
1.000000000000000E+20
 30
1.000000000000000E+20
  9
$PEXTMAX
 10
-1.000000000000000E+20
 20
-1.000000000000000E+20
 30
-1.000000000000000E+20
  9
$PLIMMIN
 10
-20.0
 20
-7.5
  9
$PLIMMAX
 10
277.0
 20
202.5
  9
$UNITMODE
 70
     0
  9
$VISRETAIN
 70
     1
  9
$PLINEGEN
 70
     0
  9
$PSLTSCALE
 70
     1
  0
ENDSEC
  0
SECTION
  2
TABLES
  0
TABLE
  2
VPORT
 70
     1
  0
VPORT
  2
*ACTIVE
 70
     0
 10
0.0
 20
0.0
 11
1.0
 21
1.0
 12
123.5469717208325
 22
6189.342837767317
 13
0.0
 23
0.0
 14
0.5
 24
0.5
 15
0.5
 25
0.5
 16
0.0
 26
0.0
 36
1.0
 17
0.0
 27
0.0
 37
0.0
 40
22861.28553011852
 41
1.429362895700973
 42
2000.0
 43
0.0
 44
0.0
 50
0.0
 51
0.0
 71
     0
 72
   100
 73
     1
 74
     3
 75
     0
 76
     0
 77
     0
 78
     0
  0
ENDTAB
  0
TABLE
  2
LTYPE
 70
    11
  0
LTYPE
  2
CONTINUOUS
 70
     0
  3
Solid line
 72
    65
 73
     0
 40
0.0
  0
LTYPE
  2
______-10
 70
     0
  3

 72
    65
 73
     6
 40
5.9375
 49
3.75
 49
-0.2777849999999998
 49
0.6944300000000003
 49
-0.2777849999999998
 49
0.625
 49
-0.3125
  0
LTYPE
  2
______-9
 70
     0
  3

 72
    65
 73
     4
 40
5.0
 49
3.75
 49
-0.2777849999999998
 49
0.6944300000000003
 49
-0.2777849999999998
  0
LTYPE
  2
______-8
 70
     0
  3

 72
    65
 73
     6
 40
1.25
 49
0.625
 49
-0.20828
 49
0.06943
 49
-0.13893
 49
0.0694299999999999
 49
-0.13893
  0
LTYPE
  2
______-7
 70
     0
  3

 72
    65
 73
     6
 40
1.875
 49
0.625
 49
-0.20828
 49
0.6250000000000001
 49
-0.2083599999999999
 49
0.06943
 49
-0.1389299999999999
  0
LTYPE
  2
______-6
 70
     0
  3

 72
    65
 73
     4
 40
1.04164
 49
0.625
 49
-0.20828
 49
0.06943
 49
-0.13893
  0
LTYPE
  2
______-5
 70
     0
  3

 72
    65
 73
     2
 40
0.20828
 49
0.069425
 49
-0.138855
  0
LTYPE
  2
______-4
 70
     0
  3

 72
    65
 73
     2
 40
1.52771
 49
1.319425
 49
-0.208285
  0
LTYPE
  2
______-3
 70
     0
  3

 72
    65
 73
     2
 40
1.25
 49
1.04164
 49
-0.2083599999999999
  0
LTYPE
  2
______-2
 70
     0
  3

 72
    65
 73
     2
 40
0.6944250000000001
 49
0.48607
 49
-0.2083550000000001
  0
LTYPE
  2
______-1
 70
     0
  3

 72
    65
 73
     2
 40
0.41664
 49
0.20828
 49
-0.20836
  0
ENDTAB
  0
TABLE
  2
LAYER
 70
     3
  0
LAYER
  2
0
 70
     0
 62
     7
  6
CONTINUOUS
  0
LAYER
  2
__
 70
     0
 62
     7
  6
CONTINUOUS
  0
ENDTAB
  0
TABLE
  2
STYLE
 70
     2
  0
STYLE
  2
STANDARD
 70
     0
 40
0.0
 41
1.0
 50
0.0
 71
     0
 42
0.2
  3
txt
  4
BIGFONT.SHX
  0
STYLE
  2
_______
 70
     0
 40
0.0
 41
1.0
 50
0.0
 71
     0
 42
0.2
  3

  4
ＭＳ ゴシック
  0
ENDTAB
  0
TABLE
  2
VIEW
 70
     0
  0
ENDTAB
  0
TABLE
  2
UCS
 70
     0
  0
ENDTAB
  0
TABLE
  2
APPID
 70
     3
  0
APPID
  2
ACAD
 70
     0
  0
APPID
  2
ACCMTRANSPARENCY
 70
     0
  0
APPID
  2
ACAECLAYERSTANDARD
 70
     0
  0
ENDTAB
  0
TABLE
  2
DIMSTYLE
 70
     1
  0
DIMSTYLE
  2
STANDARD
 70
     0
  3

  4

  5

  6

  7

 40
1.0
 41
0.18
 42
0.0625
 43
0.38
 44
0.18
 45
0.0
 46
0.0
 47
0.0
 48
0.0
140
0.18
141
0.09
142
0.0
143
25.4
144
1.0
145
0.0
146
1.0
147
0.09
 71
     0
 72
     0
 73
     1
 74
     1
 75
     0
 76
     0
 77
     0
 78
     0
170
     0
171
     2
172
     0
173
     0
174
     0
175
     0
176
     0
177
     0
178
     0
  0
ENDTAB
  0
ENDSEC
  0
SECTION
  2
BLOCKS
  0
BLOCK
  8
0
  2
$MODEL_SPACE
 70
     0
 10
0.0
 20
0.0
 30
0.0
  3
$MODEL_SPACE
  1

  0
ENDBLK
  5
21
  8
0
  0
BLOCK
 67
     1
  8
0
  2
$PAPER_SPACE
 70
     0
 10
0.0
 20
0.0
 30
0.0
  3
$PAPER_SPACE
  1

  0
ENDBLK
  5
1D
 67
     1
  8
0
  0
BLOCK
  8
0
  2
BATT_INSULATION
 70
     0
 10
0.0
 20
0.0
 30
0.0
  3
BATT_INSULATION
  1

  0
POLYLINE
  5
99
  8
__
  6
CONTINUOUS
 62
     7
 66
     1
 10
0.0
 20
0.0
 30
0.0
 70
   128
  0
VERTEX
  5
9A
  8
__
  6
CONTINUOUS
 62
     7
 10
0.0
 20
-75.0
 30
0.0
 42
0.5568826053827942
 70
     2
 50
2.011625945540938E+16
  0
VERTEX
  5
9B
  8
__
  6
CONTINUOUS
 62
     7
 10
41.38560297221644
 20
-8.185877299259161
 30
0.0
  0
VERTEX
  5
9C
  8
__
  6
CONTINUOUS
 62
     7
 10
33.240531263285
 20
8.185877299259161
 30
0.0
 42
-0.5568826053827943
 70
     2
 50
28.50508355380668
  0
VERTEX
  5
9D
  8
__
  6
CONTINUOUS
 62
     7
 10
74.62613423550144
 20
75.0
 30
0.0
 42
-0.5568826053827937
 70
     2
 50
-3.897154736081378E+16
  0
VERTEX
  5
9E
  8
__
  6
CONTINUOUS
 62
     7
 10
116.0117372077179
 20
8.185877299259161
 30
0.0
  0
VERTEX
  5
9F
  8
__
  6
CONTINUOUS
 62
     7
 10
107.8666654987864
 20
-8.185877299259161
 30
0.0
 42
0.5568826053827942
 70
     2
 50
-28.50508355380664
  0
VERTEX
  5
A0
  8
__
  6
CONTINUOUS
 62
     7
 10
149.2522684710029
 20
-75.0
 30
0.0
 42
0.556882605382796
 70
     2
 50
1.039328778465266E+16
  0
VERTEX
  5
A1
  8
__
  6
CONTINUOUS
 62
     7
 10
190.6378714432193
 20
-8.185877299259161
 30
0.0
  0
VERTEX
  5
A2
  8
__
  6
CONTINUOUS
 62
     7
 10
182.4927997342879
 20
8.185877299259161
 30
0.0
 42
-0.5568826053827951
 70
     2
 50
28.50508355380675
  0
VERTEX
  5
A3
  8
__
  6
CONTINUOUS
 62
     7
 10
223.8784027065043
 20
75.0
 30
0.0
 42
-0.5568826053828009
 70
     2
 50
-4724125278320604
  0
VERTEX
  5
A4
  8
__
  6
CONTINUOUS
 62
     7
 10
265.2640056787208
 20
8.185877299259161
 30
0.0
  0
VERTEX
  5
A5
  8
__
  6
CONTINUOUS
 62
     7
 10
257.1189339697893
 20
-8.185877299259161
 30
0.0
 42
0.5568826053828014
 70
     2
 50
-28.50508355380743
  0
VERTEX
  5
A6
  8
__
  6
CONTINUOUS
 62
     7
 10
298.5045369420058
 20
-75.0
 30
0.0
 42
0.5568826053828022
 70
     2
 50
3749053927722690
  0
VERTEX
  5
A7
  8
__
  6
CONTINUOUS
 62
     7
 10
339.8901399142222
 20
-8.185877299259133
 30
0.0
  0
VERTEX
  5
A8
  8
__
  6
CONTINUOUS
 62
     7
 10
331.7450682052907
 20
8.185877299259133
 30
0.0
 42
-0.5568826053828022
 70
     2
 50
28.50508355380751
  0
VERTEX
  5
A9
  8
__
  6
CONTINUOUS
 62
     7
 10
373.1306711775072
 20
75.0
 30
0.0
 42
-0.556882605382802
 70
     2
 50
-3873202019255958
  0
VERTEX
  5
AA
  8
__
  6
CONTINUOUS
 62
     7
 10
414.5162741497237
 20
8.185877299259175
 30
0.0
  0
VERTEX
  5
AB
  8
__
  6
CONTINUOUS
 62
     7
 10
406.3712024407922
 20
-8.18587729925919
 30
0.0
 42
0.5568826053828003
 70
     2
 50
-28.50508355380734
  0
VERTEX
  5
AC
  8
__
  6
CONTINUOUS
 62
     7
 10
447.7568054130086
 20
-75.0
 30
0.0
 42
0.5568826053828017
 70
     2
 50
4242129117508096
  0
VERTEX
  5
AD
  8
__
  6
CONTINUOUS
 62
     7
 10
489.1424083852251
 20
-8.18587729925919
 30
0.0
  0
VERTEX
  5
AE
  8
__
  6
CONTINUOUS
 62
     7
 10
480.9973366762936
 20
8.185877299259133
 30
0.0
 42
-0.5568826053828022
 70
     2
 50
28.50508355380751
  0
VERTEX
  5
AF
  8
__
  6
CONTINUOUS
 62
     7
 10
522.38293964851
 20
75.0
 30
0.0
 42
-0.5568826053828009
 70
     2
 50
-4724125278320604
  0
VERTEX
  5
B0
  8
__
  6
CONTINUOUS
 62
     7
 10
563.7685426207265
 20
8.185877299259133
 30
0.0
  0
VERTEX
  5
B1
  8
__
  6
CONTINUOUS
 62
     7
 10
555.623470911795
 20
-8.185877299259133
 30
0.0
 42
0.5568826053828009
 70
     2
 50
-28.5050835538074
  0
VERTEX
  5
B2
  8
__
  6
CONTINUOUS
 62
     7
 10
597.0090738840115
 20
-75.0
 30
0.0
 42
0.5568826053828022
 70
     2
 50
3749053927722690
  0
VERTEX
  5
B3
  8
__
  6
CONTINUOUS
 62
     7
 10
638.394676856228
 20
-8.185877299259133
 30
0.0
  0
VERTEX
  5
B4
  8
__
  6
CONTINUOUS
 62
     7
 10
630.2496051472965
 20
8.185877299259133
 30
0.0
 42
-0.5568826053828022
 70
     2
 50
28.50508355380751
  0
VERTEX
  5
B5
  8
__
  6
CONTINUOUS
 62
     7
 10
671.635208119513
 20
75.0
 30
0.0
 42
-0.5568826053828009
 70
     2
 50
-4724125278320604
  0
VERTEX
  5
B6
  8
__
  6
CONTINUOUS
 62
     7
 10
713.0208110917295
 20
8.185877299259133
 30
0.0
  0
VERTEX
  5
B7
  8
__
  6
CONTINUOUS
 62
     7
 10
704.875739382798
 20
-8.185877299259133
 30
0.0
 42
0.5568826053828009
 70
     2
 50
-28.5050835538074
  0
VERTEX
  5
B8
  8
__
  6
CONTINUOUS
 62
     7
 10
746.2613423550144
 20
-75.0
 30
0.0
 42
0.5568826053828022
 70
     2
 50
3749053927722690
  0
VERTEX
  5
B9
  8
__
  6
CONTINUOUS
 62
     7
 10
787.6469453272309
 20
-8.185877299259133
 30
0.0
  0
VERTEX
  5
BA
  8
__
  6
CONTINUOUS
 62
     7
 10
779.5018736182994
 20
8.185877299259133
 30
0.0
 42
-0.5568826053828022
 70
     2
 50
28.50508355380751
  0
VERTEX
  5
BB
  8
__
  6
CONTINUOUS
 62
     7
 10
820.8874765905159
 20
75.0
 30
0.0
 42
-0.5568826053828009
 70
     2
 50
-4724125278320604
  0
VERTEX
  5
BC
  8
__
  6
CONTINUOUS
 62
     7
 10
862.2730795627324
 20
8.185877299259133
 30
0.0
  0
VERTEX
  5
BD
  8
__
  6
CONTINUOUS
 62
     7
 10
854.1280078538009
 20
-8.185877299259133
 30
0.0
 42
0.5568826053828009
 70
     2
 50
-28.5050835538074
  0
VERTEX
  5
BE
  8
__
  6
CONTINUOUS
 62
     7
 10
895.5136108260174
 20
-75.0
 30
0.0
 42
0.5568826053828022
 70
     2
 50
3749053927722690
  0
VERTEX
  5
BF
  8
__
  6
CONTINUOUS
 62
     7
 10
936.8992137982339
 20
-8.185877299259133
 30
0.0
  0
VERTEX
  5
C0
  8
__
  6
CONTINUOUS
 62
     7
 10
928.7541420893024
 20
8.185877299259133
 30
0.0
 42
-0.5568826053828022
 70
     2
 50
28.50508355380751
  0
VERTEX
  5
C1
  8
__
  6
CONTINUOUS
 62
     7
 10
970.1397450615189
 20
75.0
 30
0.0
 42
-0.5568826053828009
 70
     2
 50
-4724125278320604
  0
VERTEX
  5
C2
  8
__
  6
CONTINUOUS
 62
     7
 10
1011.525348033735
 20
8.185877299259133
 30
0.0
  0
VERTEX
  5
C3
  8
__
  6
CONTINUOUS
 62
     7
 10
1003.380276324804
 20
-8.185877299259133
 30
0.0
 42
0.556882605382802
 70
     2
 50
-28.50508355380746
  0
VERTEX
  5
C4
  8
__
  6
CONTINUOUS
 62
     7
 10
1044.76587929702
 20
-75.0
 30
0.0
 42
0.5568826053828022
 70
     2
 50
3749053927722690
  0
VERTEX
  5
C5
  8
__
  6
CONTINUOUS
 62
     7
 10
1086.151482269237
 20
-8.185877299259133
 30
0.0
  0
VERTEX
  5
C6
  8
__
  6
CONTINUOUS
 62
     7
 10
1078.006410560305
 20
8.185877299259133
 30
0.0
 42
-0.5568826053828022
 70
     2
 50
28.50508355380751
  0
VERTEX
  5
C7
  8
__
  6
CONTINUOUS
 62
     7
 10
1119.392013532522
 20
75.0
 30
0.0
 42
-0.556882605382802
 70
     2
 50
-3873202019255958
  0
VERTEX
  5
C8
  8
__
  6
CONTINUOUS
 62
     7
 10
1160.777616504738
 20
8.185877299259133
 30
0.0
  0
VERTEX
  5
C9
  8
__
  6
CONTINUOUS
 62
     7
 10
1152.632544795807
 20
-8.185877299259133
 30
0.0
 42
0.556882605382802
 70
     2
 50
-28.50508355380746
  0
VERTEX
  5
CA
  8
__
  6
CONTINUOUS
 62
     7
 10
1194.018147768023
 20
-75.0
 30
0.0
 42
0.5568826053828022
 70
     2
 50
3749053927722690
  0
VERTEX
  5
CB
  8
__
  6
CONTINUOUS
 62
     7
 10
1235.40375074024
 20
-8.185877299259133
 30
0.0
  0
VERTEX
  5
CC
  8
__
  6
CONTINUOUS
 62
     7
 10
1227.258679031308
 20
8.185877299259133
 30
0.0
 42
-0.5568826053828022
 70
     2
 50
28.50508355380751
  0
VERTEX
  5
CD
  8
__
  6
CONTINUOUS
 62
     7
 10
1268.644282003525
 20
75.0
 30
0.0
 42
-0.556882605382802
 70
     2
 50
-3873202019255958
  0
VERTEX
  5
CE
  8
__
  6
CONTINUOUS
 62
     7
 10
1310.029884975741
 20
8.185877299259133
 30
0.0
  0
VERTEX
  5
CF
  8
__
  6
CONTINUOUS
 62
     7
 10
1301.88481326681
 20
-8.185877299259133
 30
0.0
 42
0.556882605382802
 70
     2
 50
-28.50508355380746
  0
VERTEX
  5
D0
  8
__
  6
CONTINUOUS
 62
     7
 10
1343.270416239026
 20
-75.0
 30
0.0
 42
0.5568826053828022
 70
     2
 50
3749053927722690
  0
VERTEX
  5
D1
  8
__
  6
CONTINUOUS
 62
     7
 10
1384.656019211243
 20
-8.185877299259133
 30
0.0
  0
VERTEX
  5
D2
  8
__
  6
CONTINUOUS
 62
     7
 10
1376.510947502311
 20
8.185877299259133
 30
0.0
 42
-0.5568826053828022
 70
     2
 50
28.50508355380751
  0
VERTEX
  5
D3
  8
__
  6
CONTINUOUS
 62
     7
 10
1417.896550474528
 20
75.0
 30
0.0
 42
-0.556882605382802
 70
     2
 50
-3873202019255958
  0
VERTEX
  5
D4
  8
__
  6
CONTINUOUS
 62
     7
 10
1459.282153446744
 20
8.185877299259133
 30
0.0
  0
VERTEX
  5
D5
  8
__
  6
CONTINUOUS
 62
     7
 10
1451.137081737813
 20
-8.185877299259133
 30
0.0
 42
0.556882605382802
 70
     2
 50
-28.50508355380746
  0
VERTEX
  5
D6
  8
__
  6
CONTINUOUS
 62
     7
 10
1492.522684710029
 20
-75.0
 30
0.0
 42
0.5568826053828022
 70
     2
 50
3749053927722690
  0
VERTEX
  5
D7
  8
__
  6
CONTINUOUS
 62
     7
 10
1533.908287682246
 20
-8.185877299259133
 30
0.0
  0
VERTEX
  5
D8
  8
__
  6
CONTINUOUS
 62
     7
 10
1525.763215973314
 20
8.185877299259133
 30
0.0
 42
-0.5568826053828022
 70
     2
 50
28.50508355380751
  0
VERTEX
  5
D9
  8
__
  6
CONTINUOUS
 62
     7
 10
1567.148818945531
 20
75.0
 30
0.0
 42
-0.556882605382802
 70
     2
 50
-3873202019255958
  0
VERTEX
  5
DA
  8
__
  6
CONTINUOUS
 62
     7
 10
1608.534421917747
 20
8.185877299259133
 30
0.0
  0
VERTEX
  5
DB
  8
__
  6
CONTINUOUS
 62
     7
 10
1600.389350208816
 20
-8.185877299259133
 30
0.0
 42
0.556882605382802
 70
     2
 50
-28.50508355380746
  0
VERTEX
  5
DC
  8
__
  6
CONTINUOUS
 62
     7
 10
1641.774953181032
 20
-75.0
 30
0.0
 42
0.5568826053828022
 70
     2
 50
3749053927722690
  0
VERTEX
  5
DD
  8
__
  6
CONTINUOUS
 62
     7
 10
1683.160556153249
 20
-8.185877299259133
 30
0.0
  0
VERTEX
  5
DE
  8
__
  6
CONTINUOUS
 62
     7
 10
1675.015484444317
 20
8.185877299259133
 30
0.0
 42
-0.5568826053828022
 70
     2
 50
28.50508355380751
  0
VERTEX
  5
DF
  8
__
  6
CONTINUOUS
 62
     7
 10
1716.401087416534
 20
75.0
 30
0.0
 42
-0.556882605382802
 70
     2
 50
-3873202019255958
  0
VERTEX
  5
E0
  8
__
  6
CONTINUOUS
 62
     7
 10
1757.78669038875
 20
8.185877299259133
 30
0.0
  0
VERTEX
  5
E1
  8
__
  6
CONTINUOUS
 62
     7
 10
1749.641618679819
 20
-8.185877299259133
 30
0.0
 42
0.556882605382802
 70
     2
 50
-28.50508355380746
  0
VERTEX
  5
E2
  8
__
  6
CONTINUOUS
 62
     7
 10
1791.027221652035
 20
-75.0
 30
0.0
 42
0.5568826053828022
 70
     2
 50
3749053927722690
  0
VERTEX
  5
E3
  8
__
  6
CONTINUOUS
 62
     7
 10
1832.412824624251
 20
-8.185877299259133
 30
0.0
  0
VERTEX
  5
E4
  8
__
  6
CONTINUOUS
 62
     7
 10
1824.26775291532
 20
8.185877299259133
 30
0.0
 42
-0.5568826053828022
 70
     2
 50
28.50508355380751
  0
VERTEX
  5
E5
  8
__
  6
CONTINUOUS
 62
     7
 10
1865.653355887536
 20
75.0
 30
0.0
 42
-0.556882605382802
 70
     2
 50
-3873202019255958
  0
VERTEX
  5
E6
  8
__
  6
CONTINUOUS
 62
     7
 10
1907.038958859753
 20
8.185877299259133
 30
0.0
  0
VERTEX
  5
E7
  8
__
  6
CONTINUOUS
 62
     7
 10
1898.893887150821
 20
-8.185877299259133
 30
0.0
 42
0.556882605382802
 70
     2
 50
-28.50508355380746
  0
VERTEX
  5
E8
  8
__
  6
CONTINUOUS
 62
     7
 10
1940.279490123038
 20
-75.0
 30
0.0
  0
SEQEND
  5
E9
  8
__
  6
CONTINUOUS
 62
     7
  0
ENDBLK
  5
70
  8
0
  0
BLOCK
  8
0
  2
BATT_INSULATION-1
 70
     0
 10
0.0
 20
0.0
 30
0.0
  3
BATT_INSULATION-1
  1

  0
POLYLINE
  5
EA
  8
__
  6
CONTINUOUS
 62
     7
 66
     1
 10
0.0
 20
0.0
 30
0.0
 70
   128
  0
VERTEX
  5
EB
  8
__
  6
CONTINUOUS
 62
     7
 10
0.0
 20
-75.0
 30
0.0
 42
0.5568826053827942
 70
     2
 50
2.011625945540938E+16
  0
VERTEX
  5
EC
  8
__
  6
CONTINUOUS
 62
     7
 10
41.38560297221644
 20
-8.185877299259161
 30
0.0
  0
VERTEX
  5
ED
  8
__
  6
CONTINUOUS
 62
     7
 10
33.240531263285
 20
8.185877299259161
 30
0.0
 42
-0.5568826053827943
 70
     2
 50
28.50508355380668
  0
VERTEX
  5
EE
  8
__
  6
CONTINUOUS
 62
     7
 10
74.62613423550144
 20
75.0
 30
0.0
 42
-0.5568826053827937
 70
     2
 50
-3.897154736081378E+16
  0
VERTEX
  5
EF
  8
__
  6
CONTINUOUS
 62
     7
 10
116.0117372077179
 20
8.185877299259161
 30
0.0
  0
VERTEX
  5
F0
  8
__
  6
CONTINUOUS
 62
     7
 10
107.8666654987864
 20
-8.185877299259161
 30
0.0
 42
0.5568826053827942
 70
     2
 50
-28.50508355380664
  0
VERTEX
  5
F1
  8
__
  6
CONTINUOUS
 62
     7
 10
149.2522684710029
 20
-75.0
 30
0.0
 42
0.556882605382796
 70
     2
 50
1.039328778465266E+16
  0
VERTEX
  5
F2
  8
__
  6
CONTINUOUS
 62
     7
 10
190.6378714432193
 20
-8.185877299259161
 30
0.0
  0
VERTEX
  5
F3
  8
__
  6
CONTINUOUS
 62
     7
 10
182.4927997342879
 20
8.185877299259161
 30
0.0
 42
-0.5568826053827951
 70
     2
 50
28.50508355380675
  0
VERTEX
  5
F4
  8
__
  6
CONTINUOUS
 62
     7
 10
223.8784027065043
 20
75.0
 30
0.0
 42
-0.5568826053828009
 70
     2
 50
-4724125278320604
  0
VERTEX
  5
F5
  8
__
  6
CONTINUOUS
 62
     7
 10
265.2640056787208
 20
8.185877299259161
 30
0.0
  0
VERTEX
  5
F6
  8
__
  6
CONTINUOUS
 62
     7
 10
257.1189339697893
 20
-8.185877299259161
 30
0.0
 42
0.5568826053828014
 70
     2
 50
-28.50508355380743
  0
VERTEX
  5
F7
  8
__
  6
CONTINUOUS
 62
     7
 10
298.5045369420058
 20
-75.0
 30
0.0
 42
0.5568826053828022
 70
     2
 50
3749053927722690
  0
VERTEX
  5
F8
  8
__
  6
CONTINUOUS
 62
     7
 10
339.8901399142222
 20
-8.185877299259133
 30
0.0
  0
VERTEX
  5
F9
  8
__
  6
CONTINUOUS
 62
     7
 10
331.7450682052907
 20
8.185877299259133
 30
0.0
 42
-0.5568826053828022
 70
     2
 50
28.50508355380751
  0
VERTEX
  5
FA
  8
__
  6
CONTINUOUS
 62
     7
 10
373.1306711775072
 20
75.0
 30
0.0
 42
-0.556882605382802
 70
     2
 50
-3873202019255958
  0
VERTEX
  5
FB
  8
__
  6
CONTINUOUS
 62
     7
 10
414.5162741497237
 20
8.185877299259175
 30
0.0
  0
VERTEX
  5
FC
  8
__
  6
CONTINUOUS
 62
     7
 10
406.3712024407922
 20
-8.18587729925919
 30
0.0
 42
0.5568826053828003
 70
     2
 50
-28.50508355380734
  0
VERTEX
  5
FD
  8
__
  6
CONTINUOUS
 62
     7
 10
447.7568054130086
 20
-75.0
 30
0.0
 42
0.5568826053828017
 70
     2
 50
4242129117508096
  0
VERTEX
  5
FE
  8
__
  6
CONTINUOUS
 62
     7
 10
489.1424083852251
 20
-8.18587729925919
 30
0.0
  0
VERTEX
  5
FF
  8
__
  6
CONTINUOUS
 62
     7
 10
480.9973366762936
 20
8.185877299259133
 30
0.0
 42
-0.5568826053828022
 70
     2
 50
28.50508355380751
  0
VERTEX
  5
100
  8
__
  6
CONTINUOUS
 62
     7
 10
522.38293964851
 20
75.0
 30
0.0
 42
-0.5568826053828009
 70
     2
 50
-4724125278320604
  0
VERTEX
  5
101
  8
__
  6
CONTINUOUS
 62
     7
 10
563.7685426207265
 20
8.185877299259133
 30
0.0
  0
VERTEX
  5
102
  8
__
  6
CONTINUOUS
 62
     7
 10
555.623470911795
 20
-8.185877299259133
 30
0.0
 42
0.5568826053828009
 70
     2
 50
-28.5050835538074
  0
VERTEX
  5
103
  8
__
  6
CONTINUOUS
 62
     7
 10
597.0090738840115
 20
-75.0
 30
0.0
 42
0.5568826053828022
 70
     2
 50
3749053927722690
  0
VERTEX
  5
104
  8
__
  6
CONTINUOUS
 62
     7
 10
638.394676856228
 20
-8.185877299259133
 30
0.0
  0
VERTEX
  5
105
  8
__
  6
CONTINUOUS
 62
     7
 10
630.2496051472965
 20
8.185877299259133
 30
0.0
 42
-0.5568826053828022
 70
     2
 50
28.50508355380751
  0
VERTEX
  5
106
  8
__
  6
CONTINUOUS
 62
     7
 10
671.635208119513
 20
75.0
 30
0.0
 42
-0.5568826053828009
 70
     2
 50
-4724125278320604
  0
VERTEX
  5
107
  8
__
  6
CONTINUOUS
 62
     7
 10
713.0208110917295
 20
8.185877299259133
 30
0.0
  0
VERTEX
  5
108
  8
__
  6
CONTINUOUS
 62
     7
 10
704.875739382798
 20
-8.185877299259133
 30
0.0
 42
0.5568826053828009
 70
     2
 50
-28.5050835538074
  0
VERTEX
  5
109
  8
__
  6
CONTINUOUS
 62
     7
 10
746.2613423550144
 20
-75.0
 30
0.0
 42
0.5568826053828022
 70
     2
 50
3749053927722690
  0
VERTEX
  5
10A
  8
__
  6
CONTINUOUS
 62
     7
 10
787.6469453272309
 20
-8.185877299259133
 30
0.0
  0
VERTEX
  5
10B
  8
__
  6
CONTINUOUS
 62
     7
 10
779.5018736182994
 20
8.185877299259133
 30
0.0
 42
-0.5568826053828022
 70
     2
 50
28.50508355380751
  0
VERTEX
  5
10C
  8
__
  6
CONTINUOUS
 62
     7
 10
820.8874765905159
 20
75.0
 30
0.0
 42
-0.5568826053828009
 70
     2
 50
-4724125278320604
  0
VERTEX
  5
10D
  8
__
  6
CONTINUOUS
 62
     7
 10
862.2730795627324
 20
8.185877299259133
 30
0.0
  0
VERTEX
  5
10E
  8
__
  6
CONTINUOUS
 62
     7
 10
854.1280078538009
 20
-8.185877299259133
 30
0.0
 42
0.5568826053828009
 70
     2
 50
-28.5050835538074
  0
VERTEX
  5
10F
  8
__
  6
CONTINUOUS
 62
     7
 10
895.5136108260174
 20
-75.0
 30
0.0
 42
0.5568826053828022
 70
     2
 50
3749053927722690
  0
VERTEX
  5
110
  8
__
  6
CONTINUOUS
 62
     7
 10
936.8992137982339
 20
-8.185877299259133
 30
0.0
  0
VERTEX
  5
111
  8
__
  6
CONTINUOUS
 62
     7
 10
928.7541420893024
 20
8.185877299259133
 30
0.0
 42
-0.5568826053828022
 70
     2
 50
28.50508355380751
  0
VERTEX
  5
112
  8
__
  6
CONTINUOUS
 62
     7
 10
970.1397450615189
 20
75.0
 30
0.0
 42
-0.5568826053828009
 70
     2
 50
-4724125278320604
  0
VERTEX
  5
113
  8
__
  6
CONTINUOUS
 62
     7
 10
1011.525348033735
 20
8.185877299259133
 30
0.0
  0
VERTEX
  5
114
  8
__
  6
CONTINUOUS
 62
     7
 10
1003.380276324804
 20
-8.185877299259133
 30
0.0
 42
0.556882605382802
 70
     2
 50
-28.50508355380746
  0
VERTEX
  5
115
  8
__
  6
CONTINUOUS
 62
     7
 10
1044.76587929702
 20
-75.0
 30
0.0
 42
0.5568826053828022
 70
     2
 50
3749053927722690
  0
VERTEX
  5
116
  8
__
  6
CONTINUOUS
 62
     7
 10
1086.151482269237
 20
-8.185877299259133
 30
0.0
  0
VERTEX
  5
117
  8
__
  6
CONTINUOUS
 62
     7
 10
1078.006410560305
 20
8.185877299259133
 30
0.0
 42
-0.5568826053828022
 70
     2
 50
28.50508355380751
  0
VERTEX
  5
118
  8
__
  6
CONTINUOUS
 62
     7
 10
1119.392013532522
 20
75.0
 30
0.0
 42
-0.556882605382802
 70
     2
 50
-3873202019255958
  0
VERTEX
  5
119
  8
__
  6
CONTINUOUS
 62
     7
 10
1160.777616504738
 20
8.185877299259133
 30
0.0
  0
VERTEX
  5
11A
  8
__
  6
CONTINUOUS
 62
     7
 10
1152.632544795807
 20
-8.185877299259133
 30
0.0
 42
0.556882605382802
 70
     2
 50
-28.50508355380746
  0
VERTEX
  5
11B
  8
__
  6
CONTINUOUS
 62
     7
 10
1194.018147768023
 20
-75.0
 30
0.0
 42
0.5568826053828022
 70
     2
 50
3749053927722690
  0
VERTEX
  5
11C
  8
__
  6
CONTINUOUS
 62
     7
 10
1235.40375074024
 20
-8.185877299259133
 30
0.0
  0
VERTEX
  5
11D
  8
__
  6
CONTINUOUS
 62
     7
 10
1227.258679031308
 20
8.185877299259133
 30
0.0
 42
-0.5568826053828022
 70
     2
 50
28.50508355380751
  0
VERTEX
  5
11E
  8
__
  6
CONTINUOUS
 62
     7
 10
1268.644282003525
 20
75.0
 30
0.0
 42
-0.556882605382802
 70
     2
 50
-3873202019255958
  0
VERTEX
  5
11F
  8
__
  6
CONTINUOUS
 62
     7
 10
1310.029884975741
 20
8.185877299259133
 30
0.0
  0
VERTEX
  5
120
  8
__
  6
CONTINUOUS
 62
     7
 10
1301.88481326681
 20
-8.185877299259133
 30
0.0
 42
0.556882605382802
 70
     2
 50
-28.50508355380746
  0
VERTEX
  5
121
  8
__
  6
CONTINUOUS
 62
     7
 10
1343.270416239026
 20
-75.0
 30
0.0
 42
0.5568826053828022
 70
     2
 50
3749053927722690
  0
VERTEX
  5
122
  8
__
  6
CONTINUOUS
 62
     7
 10
1384.656019211243
 20
-8.185877299259133
 30
0.0
  0
VERTEX
  5
123
  8
__
  6
CONTINUOUS
 62
     7
 10
1376.510947502311
 20
8.185877299259133
 30
0.0
 42
-0.5568826053828022
 70
     2
 50
28.50508355380751
  0
VERTEX
  5
124
  8
__
  6
CONTINUOUS
 62
     7
 10
1417.896550474528
 20
75.0
 30
0.0
 42
-0.556882605382802
 70
     2
 50
-3873202019255958
  0
VERTEX
  5
125
  8
__
  6
CONTINUOUS
 62
     7
 10
1459.282153446744
 20
8.185877299259133
 30
0.0
  0
VERTEX
  5
126
  8
__
  6
CONTINUOUS
 62
     7
 10
1451.137081737813
 20
-8.185877299259133
 30
0.0
 42
0.556882605382802
 70
     2
 50
-28.50508355380746
  0
VERTEX
  5
127
  8
__
  6
CONTINUOUS
 62
     7
 10
1492.522684710029
 20
-75.0
 30
0.0
 42
0.5568826053828022
 70
     2
 50
3749053927722690
  0
VERTEX
  5
128
  8
__
  6
CONTINUOUS
 62
     7
 10
1533.908287682246
 20
-8.185877299259133
 30
0.0
  0
VERTEX
  5
129
  8
__
  6
CONTINUOUS
 62
     7
 10
1525.763215973314
 20
8.185877299259133
 30
0.0
 42
-0.5568826053828022
 70
     2
 50
28.50508355380751
  0
VERTEX
  5
12A
  8
__
  6
CONTINUOUS
 62
     7
 10
1567.148818945531
 20
75.0
 30
0.0
 42
-0.556882605382802
 70
     2
 50
-3873202019255958
  0
VERTEX
  5
12B
  8
__
  6
CONTINUOUS
 62
     7
 10
1608.534421917747
 20
8.185877299259133
 30
0.0
  0
VERTEX
  5
12C
  8
__
  6
CONTINUOUS
 62
     7
 10
1600.389350208816
 20
-8.185877299259133
 30
0.0
 42
0.556882605382802
 70
     2
 50
-28.50508355380746
  0
VERTEX
  5
12D
  8
__
  6
CONTINUOUS
 62
     7
 10
1641.774953181032
 20
-75.0
 30
0.0
 42
0.5568826053828022
 70
     2
 50
3749053927722690
  0
VERTEX
  5
12E
  8
__
  6
CONTINUOUS
 62
     7
 10
1683.160556153249
 20
-8.185877299259133
 30
0.0
  0
VERTEX
  5
12F
  8
__
  6
CONTINUOUS
 62
     7
 10
1675.015484444317
 20
8.185877299259133
 30
0.0
 42
-0.5568826053828022
 70
     2
 50
28.50508355380751
  0
VERTEX
  5
130
  8
__
  6
CONTINUOUS
 62
     7
 10
1716.401087416534
 20
75.0
 30
0.0
 42
-0.556882605382802
 70
     2
 50
-3873202019255958
  0
VERTEX
  5
131
  8
__
  6
CONTINUOUS
 62
     7
 10
1757.78669038875
 20
8.185877299259133
 30
0.0
  0
VERTEX
  5
132
  8
__
  6
CONTINUOUS
 62
     7
 10
1749.641618679819
 20
-8.185877299259133
 30
0.0
 42
0.556882605382802
 70
     2
 50
-28.50508355380746
  0
VERTEX
  5
133
  8
__
  6
CONTINUOUS
 62
     7
 10
1791.027221652035
 20
-75.0
 30
0.0
 42
0.5568826053828022
 70
     2
 50
3749053927722690
  0
VERTEX
  5
134
  8
__
  6
CONTINUOUS
 62
     7
 10
1832.412824624251
 20
-8.185877299259133
 30
0.0
  0
VERTEX
  5
135
  8
__
  6
CONTINUOUS
 62
     7
 10
1824.26775291532
 20
8.185877299259133
 30
0.0
 42
-0.5568826053828022
 70
     2
 50
28.50508355380751
  0
VERTEX
  5
136
  8
__
  6
CONTINUOUS
 62
     7
 10
1865.653355887536
 20
75.0
 30
0.0
 42
-0.556882605382802
 70
     2
 50
-3873202019255958
  0
VERTEX
  5
137
  8
__
  6
CONTINUOUS
 62
     7
 10
1907.038958859753
 20
8.185877299259133
 30
0.0
  0
VERTEX
  5
138
  8
__
  6
CONTINUOUS
 62
     7
 10
1898.893887150821
 20
-8.185877299259133
 30
0.0
 42
0.556882605382802
 70
     2
 50
-28.50508355380746
  0
VERTEX
  5
139
  8
__
  6
CONTINUOUS
 62
     7
 10
1940.279490123038
 20
-75.0
 30
0.0
  0
SEQEND
  5
13A
  8
__
  6
CONTINUOUS
 62
     7
  0
ENDBLK
  5
73
  8
0
  0
BLOCK
  8
0
  2
BATT_INSULATION-2
 70
     0
 10
0.0
 20
0.0
 30
0.0
  3
BATT_INSULATION-2
  1

  0
POLYLINE
  5
13B
  8
__
  6
CONTINUOUS
 62
     7
 66
     1
 10
0.0
 20
0.0
 30
0.0
 70
   128
  0
VERTEX
  5
13C
  8
__
  6
CONTINUOUS
 62
     7
 10
0.0
 20
-75.0
 30
0.0
 42
0.5568826053827942
 70
     2
 50
2.011625945540938E+16
  0
VERTEX
  5
13D
  8
__
  6
CONTINUOUS
 62
     7
 10
41.38560297221644
 20
-8.185877299259161
 30
0.0
  0
VERTEX
  5
13E
  8
__
  6
CONTINUOUS
 62
     7
 10
33.240531263285
 20
8.185877299259161
 30
0.0
 42
-0.5568826053827943
 70
     2
 50
28.50508355380668
  0
VERTEX
  5
13F
  8
__
  6
CONTINUOUS
 62
     7
 10
74.62613423550144
 20
75.0
 30
0.0
 42
-0.5568826053827937
 70
     2
 50
-3.897154736081378E+16
  0
VERTEX
  5
140
  8
__
  6
CONTINUOUS
 62
     7
 10
116.0117372077179
 20
8.185877299259161
 30
0.0
  0
VERTEX
  5
141
  8
__
  6
CONTINUOUS
 62
     7
 10
107.8666654987864
 20
-8.185877299259161
 30
0.0
 42
0.5568826053827942
 70
     2
 50
-28.50508355380664
  0
VERTEX
  5
142
  8
__
  6
CONTINUOUS
 62
     7
 10
149.2522684710029
 20
-75.0
 30
0.0
 42
0.556882605382796
 70
     2
 50
1.039328778465266E+16
  0
VERTEX
  5
143
  8
__
  6
CONTINUOUS
 62
     7
 10
190.6378714432193
 20
-8.185877299259161
 30
0.0
  0
VERTEX
  5
144
  8
__
  6
CONTINUOUS
 62
     7
 10
182.4927997342879
 20
8.185877299259161
 30
0.0
 42
-0.5568826053827951
 70
     2
 50
28.50508355380675
  0
VERTEX
  5
145
  8
__
  6
CONTINUOUS
 62
     7
 10
223.8784027065043
 20
75.0
 30
0.0
 42
-0.5568826053828009
 70
     2
 50
-4724125278320604
  0
VERTEX
  5
146
  8
__
  6
CONTINUOUS
 62
     7
 10
265.2640056787208
 20
8.185877299259161
 30
0.0
  0
VERTEX
  5
147
  8
__
  6
CONTINUOUS
 62
     7
 10
257.1189339697893
 20
-8.185877299259161
 30
0.0
 42
0.5568826053828014
 70
     2
 50
-28.50508355380743
  0
VERTEX
  5
148
  8
__
  6
CONTINUOUS
 62
     7
 10
298.5045369420058
 20
-75.0
 30
0.0
 42
0.5568826053828022
 70
     2
 50
3749053927722690
  0
VERTEX
  5
149
  8
__
  6
CONTINUOUS
 62
     7
 10
339.8901399142222
 20
-8.185877299259133
 30
0.0
  0
VERTEX
  5
14A
  8
__
  6
CONTINUOUS
 62
     7
 10
331.7450682052907
 20
8.185877299259133
 30
0.0
 42
-0.5568826053828022
 70
     2
 50
28.50508355380751
  0
VERTEX
  5
14B
  8
__
  6
CONTINUOUS
 62
     7
 10
373.1306711775072
 20
75.0
 30
0.0
 42
-0.556882605382802
 70
     2
 50
-3873202019255958
  0
VERTEX
  5
14C
  8
__
  6
CONTINUOUS
 62
     7
 10
414.5162741497237
 20
8.185877299259175
 30
0.0
  0
VERTEX
  5
14D
  8
__
  6
CONTINUOUS
 62
     7
 10
406.3712024407922
 20
-8.18587729925919
 30
0.0
 42
0.5568826053828003
 70
     2
 50
-28.50508355380734
  0
VERTEX
  5
14E
  8
__
  6
CONTINUOUS
 62
     7
 10
447.7568054130086
 20
-75.0
 30
0.0
 42
0.5568826053828017
 70
     2
 50
4242129117508096
  0
VERTEX
  5
14F
  8
__
  6
CONTINUOUS
 62
     7
 10
489.1424083852251
 20
-8.18587729925919
 30
0.0
  0
VERTEX
  5
150
  8
__
  6
CONTINUOUS
 62
     7
 10
480.9973366762936
 20
8.185877299259133
 30
0.0
 42
-0.5568826053828022
 70
     2
 50
28.50508355380751
  0
VERTEX
  5
151
  8
__
  6
CONTINUOUS
 62
     7
 10
522.38293964851
 20
75.0
 30
0.0
 42
-0.5568826053828009
 70
     2
 50
-4724125278320604
  0
VERTEX
  5
152
  8
__
  6
CONTINUOUS
 62
     7
 10
563.7685426207265
 20
8.185877299259133
 30
0.0
  0
VERTEX
  5
153
  8
__
  6
CONTINUOUS
 62
     7
 10
555.623470911795
 20
-8.185877299259133
 30
0.0
 42
0.5568826053828009
 70
     2
 50
-28.5050835538074
  0
VERTEX
  5
154
  8
__
  6
CONTINUOUS
 62
     7
 10
597.0090738840115
 20
-75.0
 30
0.0
 42
0.5568826053828022
 70
     2
 50
3749053927722690
  0
VERTEX
  5
155
  8
__
  6
CONTINUOUS
 62
     7
 10
638.394676856228
 20
-8.185877299259133
 30
0.0
  0
VERTEX
  5
156
  8
__
  6
CONTINUOUS
 62
     7
 10
630.2496051472965
 20
8.185877299259133
 30
0.0
 42
-0.5568826053828022
 70
     2
 50
28.50508355380751
  0
VERTEX
  5
157
  8
__
  6
CONTINUOUS
 62
     7
 10
671.635208119513
 20
75.0
 30
0.0
 42
-0.5568826053828009
 70
     2
 50
-4724125278320604
  0
VERTEX
  5
158
  8
__
  6
CONTINUOUS
 62
     7
 10
713.0208110917295
 20
8.185877299259133
 30
0.0
  0
VERTEX
  5
159
  8
__
  6
CONTINUOUS
 62
     7
 10
704.875739382798
 20
-8.185877299259133
 30
0.0
 42
0.5568826053828009
 70
     2
 50
-28.5050835538074
  0
VERTEX
  5
15A
  8
__
  6
CONTINUOUS
 62
     7
 10
746.2613423550144
 20
-75.0
 30
0.0
 42
0.5568826053828022
 70
     2
 50
3749053927722690
  0
VERTEX
  5
15B
  8
__
  6
CONTINUOUS
 62
     7
 10
787.6469453272309
 20
-8.185877299259133
 30
0.0
  0
VERTEX
  5
15C
  8
__
  6
CONTINUOUS
 62
     7
 10
779.5018736182994
 20
8.185877299259133
 30
0.0
 42
-0.5568826053828022
 70
     2
 50
28.50508355380751
  0
VERTEX
  5
15D
  8
__
  6
CONTINUOUS
 62
     7
 10
820.8874765905159
 20
75.0
 30
0.0
 42
-0.5568826053828009
 70
     2
 50
-4724125278320604
  0
VERTEX
  5
15E
  8
__
  6
CONTINUOUS
 62
     7
 10
862.2730795627324
 20
8.185877299259133
 30
0.0
  0
VERTEX
  5
15F
  8
__
  6
CONTINUOUS
 62
     7
 10
854.1280078538009
 20
-8.185877299259133
 30
0.0
 42
0.5568826053828009
 70
     2
 50
-28.5050835538074
  0
VERTEX
  5
160
  8
__
  6
CONTINUOUS
 62
     7
 10
895.5136108260174
 20
-75.0
 30
0.0
 42
0.5568826053828022
 70
     2
 50
3749053927722690
  0
VERTEX
  5
161
  8
__
  6
CONTINUOUS
 62
     7
 10
936.8992137982339
 20
-8.185877299259133
 30
0.0
  0
VERTEX
  5
162
  8
__
  6
CONTINUOUS
 62
     7
 10
928.7541420893024
 20
8.185877299259133
 30
0.0
 42
-0.5568826053828022
 70
     2
 50
28.50508355380751
  0
VERTEX
  5
163
  8
__
  6
CONTINUOUS
 62
     7
 10
970.1397450615189
 20
75.0
 30
0.0
 42
-0.5568826053828009
 70
     2
 50
-4724125278320604
  0
VERTEX
  5
164
  8
__
  6
CONTINUOUS
 62
     7
 10
1011.525348033735
 20
8.185877299259133
 30
0.0
  0
VERTEX
  5
165
  8
__
  6
CONTINUOUS
 62
     7
 10
1003.380276324804
 20
-8.185877299259133
 30
0.0
 42
0.556882605382802
 70
     2
 50
-28.50508355380746
  0
VERTEX
  5
166
  8
__
  6
CONTINUOUS
 62
     7
 10
1044.76587929702
 20
-75.0
 30
0.0
 42
0.5568826053828022
 70
     2
 50
3749053927722690
  0
VERTEX
  5
167
  8
__
  6
CONTINUOUS
 62
     7
 10
1086.151482269237
 20
-8.185877299259133
 30
0.0
  0
VERTEX
  5
168
  8
__
  6
CONTINUOUS
 62
     7
 10
1078.006410560305
 20
8.185877299259133
 30
0.0
 42
-0.5568826053828022
 70
     2
 50
28.50508355380751
  0
VERTEX
  5
169
  8
__
  6
CONTINUOUS
 62
     7
 10
1119.392013532522
 20
75.0
 30
0.0
 42
-0.556882605382802
 70
     2
 50
-3873202019255958
  0
VERTEX
  5
16A
  8
__
  6
CONTINUOUS
 62
     7
 10
1160.777616504738
 20
8.185877299259133
 30
0.0
  0
VERTEX
  5
16B
  8
__
  6
CONTINUOUS
 62
     7
 10
1152.632544795807
 20
-8.185877299259133
 30
0.0
 42
0.556882605382802
 70
     2
 50
-28.50508355380746
  0
VERTEX
  5
16C
  8
__
  6
CONTINUOUS
 62
     7
 10
1194.018147768023
 20
-75.0
 30
0.0
 42
0.5568826053828022
 70
     2
 50
3749053927722690
  0
VERTEX
  5
16D
  8
__
  6
CONTINUOUS
 62
     7
 10
1235.40375074024
 20
-8.185877299259133
 30
0.0
  0
VERTEX
  5
16E
  8
__
  6
CONTINUOUS
 62
     7
 10
1227.258679031308
 20
8.185877299259133
 30
0.0
 42
-0.5568826053828022
 70
     2
 50
28.50508355380751
  0
VERTEX
  5
16F
  8
__
  6
CONTINUOUS
 62
     7
 10
1268.644282003525
 20
75.0
 30
0.0
 42
-0.556882605382802
 70
     2
 50
-3873202019255958
  0
VERTEX
  5
170
  8
__
  6
CONTINUOUS
 62
     7
 10
1310.029884975741
 20
8.185877299259133
 30
0.0
  0
VERTEX
  5
171
  8
__
  6
CONTINUOUS
 62
     7
 10
1301.88481326681
 20
-8.185877299259133
 30
0.0
 42
0.556882605382802
 70
     2
 50
-28.50508355380746
  0
VERTEX
  5
172
  8
__
  6
CONTINUOUS
 62
     7
 10
1343.270416239026
 20
-75.0
 30
0.0
 42
0.5568826053828022
 70
     2
 50
3749053927722690
  0
VERTEX
  5
173
  8
__
  6
CONTINUOUS
 62
     7
 10
1384.656019211243
 20
-8.185877299259133
 30
0.0
  0
VERTEX
  5
174
  8
__
  6
CONTINUOUS
 62
     7
 10
1376.510947502311
 20
8.185877299259133
 30
0.0
 42
-0.5568826053828022
 70
     2
 50
28.50508355380751
  0
VERTEX
  5
175
  8
__
  6
CONTINUOUS
 62
     7
 10
1417.896550474528
 20
75.0
 30
0.0
 42
-0.556882605382802
 70
     2
 50
-3873202019255958
  0
VERTEX
  5
176
  8
__
  6
CONTINUOUS
 62
     7
 10
1459.282153446744
 20
8.185877299259133
 30
0.0
  0
VERTEX
  5
177
  8
__
  6
CONTINUOUS
 62
     7
 10
1451.137081737813
 20
-8.185877299259133
 30
0.0
 42
0.556882605382802
 70
     2
 50
-28.50508355380746
  0
VERTEX
  5
178
  8
__
  6
CONTINUOUS
 62
     7
 10
1492.522684710029
 20
-75.0
 30
0.0
 42
0.5568826053828022
 70
     2
 50
3749053927722690
  0
VERTEX
  5
179
  8
__
  6
CONTINUOUS
 62
     7
 10
1533.908287682246
 20
-8.185877299259133
 30
0.0
  0
VERTEX
  5
17A
  8
__
  6
CONTINUOUS
 62
     7
 10
1525.763215973314
 20
8.185877299259133
 30
0.0
 42
-0.5568826053828022
 70
     2
 50
28.50508355380751
  0
VERTEX
  5
17B
  8
__
  6
CONTINUOUS
 62
     7
 10
1567.148818945531
 20
75.0
 30
0.0
 42
-0.556882605382802
 70
     2
 50
-3873202019255958
  0
VERTEX
  5
17C
  8
__
  6
CONTINUOUS
 62
     7
 10
1608.534421917747
 20
8.185877299259133
 30
0.0
  0
VERTEX
  5
17D
  8
__
  6
CONTINUOUS
 62
     7
 10
1600.389350208816
 20
-8.185877299259133
 30
0.0
 42
0.556882605382802
 70
     2
 50
-28.50508355380746
  0
VERTEX
  5
17E
  8
__
  6
CONTINUOUS
 62
     7
 10
1641.774953181032
 20
-75.0
 30
0.0
 42
0.5568826053828022
 70
     2
 50
3749053927722690
  0
VERTEX
  5
17F
  8
__
  6
CONTINUOUS
 62
     7
 10
1683.160556153249
 20
-8.185877299259133
 30
0.0
  0
VERTEX
  5
180
  8
__
  6
CONTINUOUS
 62
     7
 10
1675.015484444317
 20
8.185877299259133
 30
0.0
 42
-0.5568826053828022
 70
     2
 50
28.50508355380751
  0
VERTEX
  5
181
  8
__
  6
CONTINUOUS
 62
     7
 10
1716.401087416534
 20
75.0
 30
0.0
 42
-0.556882605382802
 70
     2
 50
-3873202019255958
  0
VERTEX
  5
182
  8
__
  6
CONTINUOUS
 62
     7
 10
1757.78669038875
 20
8.185877299259133
 30
0.0
  0
VERTEX
  5
183
  8
__
  6
CONTINUOUS
 62
     7
 10
1749.641618679819
 20
-8.185877299259133
 30
0.0
 42
0.556882605382802
 70
     2
 50
-28.50508355380746
  0
VERTEX
  5
184
  8
__
  6
CONTINUOUS
 62
     7
 10
1791.027221652035
 20
-75.0
 30
0.0
 42
0.5568826053828022
 70
     2
 50
3749053927722690
  0
VERTEX
  5
185
  8
__
  6
CONTINUOUS
 62
     7
 10
1832.412824624251
 20
-8.185877299259133
 30
0.0
  0
VERTEX
  5
186
  8
__
  6
CONTINUOUS
 62
     7
 10
1824.26775291532
 20
8.185877299259133
 30
0.0
 42
-0.5568826053828022
 70
     2
 50
28.50508355380751
  0
VERTEX
  5
187
  8
__
  6
CONTINUOUS
 62
     7
 10
1865.653355887536
 20
75.0
 30
0.0
 42
-0.556882605382802
 70
     2
 50
-3873202019255958
  0
VERTEX
  5
188
  8
__
  6
CONTINUOUS
 62
     7
 10
1907.038958859753
 20
8.185877299259133
 30
0.0
  0
VERTEX
  5
189
  8
__
  6
CONTINUOUS
 62
     7
 10
1898.893887150821
 20
-8.185877299259133
 30
0.0
 42
0.556882605382802
 70
     2
 50
-28.50508355380746
  0
VERTEX
  5
18A
  8
__
  6
CONTINUOUS
 62
     7
 10
1940.279490123038
 20
-75.0
 30
0.0
  0
SEQEND
  5
18B
  8
__
  6
CONTINUOUS
 62
     7
  0
ENDBLK
  5
76
  8
0
  0
BLOCK
  8
0
  2
BATT_INSULATION-3
 70
     0
 10
0.0
 20
0.0
 30
0.0
  3
BATT_INSULATION-3
  1

  0
POLYLINE
  5
18C
  8
__
  6
CONTINUOUS
 62
     7
 66
     1
 10
0.0
 20
0.0
 30
0.0
 70
   128
  0
VERTEX
  5
18D
  8
__
  6
CONTINUOUS
 62
     7
 10
0.0
 20
-75.0
 30
0.0
 42
0.5568826053827942
 70
     2
 50
2.011625945540938E+16
  0
VERTEX
  5
18E
  8
__
  6
CONTINUOUS
 62
     7
 10
41.38560297221644
 20
-8.185877299259161
 30
0.0
  0
VERTEX
  5
18F
  8
__
  6
CONTINUOUS
 62
     7
 10
33.240531263285
 20
8.185877299259161
 30
0.0
 42
-0.5568826053827943
 70
     2
 50
28.50508355380668
  0
VERTEX
  5
190
  8
__
  6
CONTINUOUS
 62
     7
 10
74.62613423550144
 20
75.0
 30
0.0
 42
-0.5568826053827937
 70
     2
 50
-3.897154736081378E+16
  0
VERTEX
  5
191
  8
__
  6
CONTINUOUS
 62
     7
 10
116.0117372077179
 20
8.185877299259161
 30
0.0
  0
VERTEX
  5
192
  8
__
  6
CONTINUOUS
 62
     7
 10
107.8666654987864
 20
-8.185877299259161
 30
0.0
 42
0.5568826053827942
 70
     2
 50
-28.50508355380664
  0
VERTEX
  5
193
  8
__
  6
CONTINUOUS
 62
     7
 10
149.2522684710029
 20
-75.0
 30
0.0
 42
0.556882605382796
 70
     2
 50
1.039328778465266E+16
  0
VERTEX
  5
194
  8
__
  6
CONTINUOUS
 62
     7
 10
190.6378714432193
 20
-8.185877299259161
 30
0.0
  0
VERTEX
  5
195
  8
__
  6
CONTINUOUS
 62
     7
 10
182.4927997342879
 20
8.185877299259161
 30
0.0
 42
-0.5568826053827951
 70
     2
 50
28.50508355380675
  0
VERTEX
  5
196
  8
__
  6
CONTINUOUS
 62
     7
 10
223.8784027065043
 20
75.0
 30
0.0
 42
-0.5568826053828009
 70
     2
 50
-4724125278320604
  0
VERTEX
  5
197
  8
__
  6
CONTINUOUS
 62
     7
 10
265.2640056787208
 20
8.185877299259161
 30
0.0
  0
VERTEX
  5
198
  8
__
  6
CONTINUOUS
 62
     7
 10
257.1189339697893
 20
-8.185877299259161
 30
0.0
 42
0.5568826053828014
 70
     2
 50
-28.50508355380743
  0
VERTEX
  5
199
  8
__
  6
CONTINUOUS
 62
     7
 10
298.5045369420058
 20
-75.0
 30
0.0
 42
0.5568826053828022
 70
     2
 50
3749053927722690
  0
VERTEX
  5
19A
  8
__
  6
CONTINUOUS
 62
     7
 10
339.8901399142222
 20
-8.185877299259133
 30
0.0
  0
VERTEX
  5
19B
  8
__
  6
CONTINUOUS
 62
     7
 10
331.7450682052907
 20
8.185877299259133
 30
0.0
 42
-0.5568826053828022
 70
     2
 50
28.50508355380751
  0
VERTEX
  5
19C
  8
__
  6
CONTINUOUS
 62
     7
 10
373.1306711775072
 20
75.0
 30
0.0
 42
-0.556882605382802
 70
     2
 50
-3873202019255958
  0
VERTEX
  5
19D
  8
__
  6
CONTINUOUS
 62
     7
 10
414.5162741497237
 20
8.185877299259175
 30
0.0
  0
VERTEX
  5
19E
  8
__
  6
CONTINUOUS
 62
     7
 10
406.3712024407922
 20
-8.18587729925919
 30
0.0
 42
0.5568826053828003
 70
     2
 50
-28.50508355380734
  0
VERTEX
  5
19F
  8
__
  6
CONTINUOUS
 62
     7
 10
447.7568054130086
 20
-75.0
 30
0.0
 42
0.5568826053828017
 70
     2
 50
4242129117508096
  0
VERTEX
  5
1A0
  8
__
  6
CONTINUOUS
 62
     7
 10
489.1424083852251
 20
-8.18587729925919
 30
0.0
  0
VERTEX
  5
1A1
  8
__
  6
CONTINUOUS
 62
     7
 10
480.9973366762936
 20
8.185877299259133
 30
0.0
 42
-0.5568826053828022
 70
     2
 50
28.50508355380751
  0
VERTEX
  5
1A2
  8
__
  6
CONTINUOUS
 62
     7
 10
522.38293964851
 20
75.0
 30
0.0
 42
-0.5568826053828009
 70
     2
 50
-4724125278320604
  0
VERTEX
  5
1A3
  8
__
  6
CONTINUOUS
 62
     7
 10
563.7685426207265
 20
8.185877299259133
 30
0.0
  0
VERTEX
  5
1A4
  8
__
  6
CONTINUOUS
 62
     7
 10
555.623470911795
 20
-8.185877299259133
 30
0.0
 42
0.5568826053828009
 70
     2
 50
-28.5050835538074
  0
VERTEX
  5
1A5
  8
__
  6
CONTINUOUS
 62
     7
 10
597.0090738840115
 20
-75.0
 30
0.0
 42
0.5568826053828022
 70
     2
 50
3749053927722690
  0
VERTEX
  5
1A6
  8
__
  6
CONTINUOUS
 62
     7
 10
638.394676856228
 20
-8.185877299259133
 30
0.0
  0
VERTEX
  5
1A7
  8
__
  6
CONTINUOUS
 62
     7
 10
630.2496051472965
 20
8.185877299259133
 30
0.0
 42
-0.5568826053828022
 70
     2
 50
28.50508355380751
  0
VERTEX
  5
1A8
  8
__
  6
CONTINUOUS
 62
     7
 10
671.635208119513
 20
75.0
 30
0.0
 42
-0.5568826053828009
 70
     2
 50
-4724125278320604
  0
VERTEX
  5
1A9
  8
__
  6
CONTINUOUS
 62
     7
 10
713.0208110917295
 20
8.185877299259133
 30
0.0
  0
VERTEX
  5
1AA
  8
__
  6
CONTINUOUS
 62
     7
 10
704.875739382798
 20
-8.185877299259133
 30
0.0
 42
0.5568826053828009
 70
     2
 50
-28.5050835538074
  0
VERTEX
  5
1AB
  8
__
  6
CONTINUOUS
 62
     7
 10
746.2613423550144
 20
-75.0
 30
0.0
 42
0.5568826053828022
 70
     2
 50
3749053927722690
  0
VERTEX
  5
1AC
  8
__
  6
CONTINUOUS
 62
     7
 10
787.6469453272309
 20
-8.185877299259133
 30
0.0
  0
VERTEX
  5
1AD
  8
__
  6
CONTINUOUS
 62
     7
 10
779.5018736182994
 20
8.185877299259133
 30
0.0
 42
-0.5568826053828022
 70
     2
 50
28.50508355380751
  0
VERTEX
  5
1AE
  8
__
  6
CONTINUOUS
 62
     7
 10
820.8874765905159
 20
75.0
 30
0.0
 42
-0.5568826053828009
 70
     2
 50
-4724125278320604
  0
VERTEX
  5
1AF
  8
__
  6
CONTINUOUS
 62
     7
 10
862.2730795627324
 20
8.185877299259133
 30
0.0
  0
VERTEX
  5
1B0
  8
__
  6
CONTINUOUS
 62
     7
 10
854.1280078538009
 20
-8.185877299259133
 30
0.0
 42
0.5568826053828009
 70
     2
 50
-28.5050835538074
  0
VERTEX
  5
1B1
  8
__
  6
CONTINUOUS
 62
     7
 10
895.5136108260174
 20
-75.0
 30
0.0
 42
0.5568826053828022
 70
     2
 50
3749053927722690
  0
VERTEX
  5
1B2
  8
__
  6
CONTINUOUS
 62
     7
 10
936.8992137982339
 20
-8.185877299259133
 30
0.0
  0
VERTEX
  5
1B3
  8
__
  6
CONTINUOUS
 62
     7
 10
928.7541420893024
 20
8.185877299259133
 30
0.0
 42
-0.5568826053828022
 70
     2
 50
28.50508355380751
  0
VERTEX
  5
1B4
  8
__
  6
CONTINUOUS
 62
     7
 10
970.1397450615189
 20
75.0
 30
0.0
 42
-0.5568826053828009
 70
     2
 50
-4724125278320604
  0
VERTEX
  5
1B5
  8
__
  6
CONTINUOUS
 62
     7
 10
1011.525348033735
 20
8.185877299259133
 30
0.0
  0
VERTEX
  5
1B6
  8
__
  6
CONTINUOUS
 62
     7
 10
1003.380276324804
 20
-8.185877299259133
 30
0.0
 42
0.556882605382802
 70
     2
 50
-28.50508355380746
  0
VERTEX
  5
1B7
  8
__
  6
CONTINUOUS
 62
     7
 10
1044.76587929702
 20
-75.0
 30
0.0
 42
0.5568826053828022
 70
     2
 50
3749053927722690
  0
VERTEX
  5
1B8
  8
__
  6
CONTINUOUS
 62
     7
 10
1086.151482269237
 20
-8.185877299259133
 30
0.0
  0
VERTEX
  5
1B9
  8
__
  6
CONTINUOUS
 62
     7
 10
1078.006410560305
 20
8.185877299259133
 30
0.0
 42
-0.5568826053828022
 70
     2
 50
28.50508355380751
  0
VERTEX
  5
1BA
  8
__
  6
CONTINUOUS
 62
     7
 10
1119.392013532522
 20
75.0
 30
0.0
 42
-0.556882605382802
 70
     2
 50
-3873202019255958
  0
VERTEX
  5
1BB
  8
__
  6
CONTINUOUS
 62
     7
 10
1160.777616504738
 20
8.185877299259133
 30
0.0
  0
VERTEX
  5
1BC
  8
__
  6
CONTINUOUS
 62
     7
 10
1152.632544795807
 20
-8.185877299259133
 30
0.0
 42
0.556882605382802
 70
     2
 50
-28.50508355380746
  0
VERTEX
  5
1BD
  8
__
  6
CONTINUOUS
 62
     7
 10
1194.018147768023
 20
-75.0
 30
0.0
 42
0.5568826053828022
 70
     2
 50
3749053927722690
  0
VERTEX
  5
1BE
  8
__
  6
CONTINUOUS
 62
     7
 10
1235.40375074024
 20
-8.185877299259133
 30
0.0
  0
VERTEX
  5
1BF
  8
__
  6
CONTINUOUS
 62
     7
 10
1227.258679031308
 20
8.185877299259133
 30
0.0
 42
-0.5568826053828022
 70
     2
 50
28.50508355380751
  0
VERTEX
  5
1C0
  8
__
  6
CONTINUOUS
 62
     7
 10
1268.644282003525
 20
75.0
 30
0.0
 42
-0.556882605382802
 70
     2
 50
-3873202019255958
  0
VERTEX
  5
1C1
  8
__
  6
CONTINUOUS
 62
     7
 10
1310.029884975741
 20
8.185877299259133
 30
0.0
  0
VERTEX
  5
1C2
  8
__
  6
CONTINUOUS
 62
     7
 10
1301.88481326681
 20
-8.185877299259133
 30
0.0
 42
0.556882605382802
 70
     2
 50
-28.50508355380746
  0
VERTEX
  5
1C3
  8
__
  6
CONTINUOUS
 62
     7
 10
1343.270416239026
 20
-75.0
 30
0.0
 42
0.5568826053828022
 70
     2
 50
3749053927722690
  0
VERTEX
  5
1C4
  8
__
  6
CONTINUOUS
 62
     7
 10
1384.656019211243
 20
-8.185877299259133
 30
0.0
  0
VERTEX
  5
1C5
  8
__
  6
CONTINUOUS
 62
     7
 10
1376.510947502311
 20
8.185877299259133
 30
0.0
 42
-0.5568826053828022
 70
     2
 50
28.50508355380751
  0
VERTEX
  5
1C6
  8
__
  6
CONTINUOUS
 62
     7
 10
1417.896550474528
 20
75.0
 30
0.0
 42
-0.556882605382802
 70
     2
 50
-3873202019255958
  0
VERTEX
  5
1C7
  8
__
  6
CONTINUOUS
 62
     7
 10
1459.282153446744
 20
8.185877299259133
 30
0.0
  0
VERTEX
  5
1C8
  8
__
  6
CONTINUOUS
 62
     7
 10
1451.137081737813
 20
-8.185877299259133
 30
0.0
 42
0.556882605382802
 70
     2
 50
-28.50508355380746
  0
VERTEX
  5
1C9
  8
__
  6
CONTINUOUS
 62
     7
 10
1492.522684710029
 20
-75.0
 30
0.0
 42
0.5568826053828022
 70
     2
 50
3749053927722690
  0
VERTEX
  5
1CA
  8
__
  6
CONTINUOUS
 62
     7
 10
1533.908287682246
 20
-8.185877299259133
 30
0.0
  0
VERTEX
  5
1CB
  8
__
  6
CONTINUOUS
 62
     7
 10
1525.763215973314
 20
8.185877299259133
 30
0.0
 42
-0.5568826053828022
 70
     2
 50
28.50508355380751
  0
VERTEX
  5
1CC
  8
__
  6
CONTINUOUS
 62
     7
 10
1567.148818945531
 20
75.0
 30
0.0
 42
-0.556882605382802
 70
     2
 50
-3873202019255958
  0
VERTEX
  5
1CD
  8
__
  6
CONTINUOUS
 62
     7
 10
1608.534421917747
 20
8.185877299259133
 30
0.0
  0
VERTEX
  5
1CE
  8
__
  6
CONTINUOUS
 62
     7
 10
1600.389350208816
 20
-8.185877299259133
 30
0.0
 42
0.556882605382802
 70
     2
 50
-28.50508355380746
  0
VERTEX
  5
1CF
  8
__
  6
CONTINUOUS
 62
     7
 10
1641.774953181032
 20
-75.0
 30
0.0
 42
0.5568826053828022
 70
     2
 50
3749053927722690
  0
VERTEX
  5
1D0
  8
__
  6
CONTINUOUS
 62
     7
 10
1683.160556153249
 20
-8.185877299259133
 30
0.0
  0
VERTEX
  5
1D1
  8
__
  6
CONTINUOUS
 62
     7
 10
1675.015484444317
 20
8.185877299259133
 30
0.0
 42
-0.5568826053828022
 70
     2
 50
28.50508355380751
  0
VERTEX
  5
1D2
  8
__
  6
CONTINUOUS
 62
     7
 10
1716.401087416534
 20
75.0
 30
0.0
 42
-0.556882605382802
 70
     2
 50
-3873202019255958
  0
VERTEX
  5
1D3
  8
__
  6
CONTINUOUS
 62
     7
 10
1757.78669038875
 20
8.185877299259133
 30
0.0
  0
VERTEX
  5
1D4
  8
__
  6
CONTINUOUS
 62
     7
 10
1749.641618679819
 20
-8.185877299259133
 30
0.0
 42
0.556882605382802
 70
     2
 50
-28.50508355380746
  0
VERTEX
  5
1D5
  8
__
  6
CONTINUOUS
 62
     7
 10
1791.027221652035
 20
-75.0
 30
0.0
 42
0.5568826053828022
 70
     2
 50
3749053927722690
  0
VERTEX
  5
1D6
  8
__
  6
CONTINUOUS
 62
     7
 10
1832.412824624251
 20
-8.185877299259133
 30
0.0
  0
VERTEX
  5
1D7
  8
__
  6
CONTINUOUS
 62
     7
 10
1824.26775291532
 20
8.185877299259133
 30
0.0
 42
-0.5568826053828022
 70
     2
 50
28.50508355380751
  0
VERTEX
  5
1D8
  8
__
  6
CONTINUOUS
 62
     7
 10
1865.653355887536
 20
75.0
 30
0.0
 42
-0.556882605382802
 70
     2
 50
-3873202019255958
  0
VERTEX
  5
1D9
  8
__
  6
CONTINUOUS
 62
     7
 10
1907.038958859753
 20
8.185877299259133
 30
0.0
  0
VERTEX
  5
1DA
  8
__
  6
CONTINUOUS
 62
     7
 10
1898.893887150821
 20
-8.185877299259133
 30
0.0
 42
0.556882605382802
 70
     2
 50
-28.50508355380746
  0
VERTEX
  5
1DB
  8
__
  6
CONTINUOUS
 62
     7
 10
1940.279490123038
 20
-75.0
 30
0.0
  0
SEQEND
  5
1DC
  8
__
  6
CONTINUOUS
 62
     7
  0
ENDBLK
  5
79
  8
0
  0
BLOCK
  8
0
  2
BATT_INSULATION-4
 70
     0
 10
0.0
 20
0.0
 30
0.0
  3
BATT_INSULATION-4
  1

  0
POLYLINE
  5
1DD
  8
__
  6
CONTINUOUS
 62
     7
 66
     1
 10
0.0
 20
0.0
 30
0.0
 70
   128
  0
VERTEX
  5
1DE
  8
__
  6
CONTINUOUS
 62
     7
 10
0.0
 20
-75.0
 30
0.0
 42
0.5568826053827942
 70
     2
 50
2.011625945540938E+16
  0
VERTEX
  5
1DF
  8
__
  6
CONTINUOUS
 62
     7
 10
41.38560297221644
 20
-8.185877299259161
 30
0.0
  0
VERTEX
  5
1E0
  8
__
  6
CONTINUOUS
 62
     7
 10
33.240531263285
 20
8.185877299259161
 30
0.0
 42
-0.5568826053827943
 70
     2
 50
28.50508355380668
  0
VERTEX
  5
1E1
  8
__
  6
CONTINUOUS
 62
     7
 10
74.62613423550144
 20
75.0
 30
0.0
 42
-0.5568826053827937
 70
     2
 50
-3.897154736081378E+16
  0
VERTEX
  5
1E2
  8
__
  6
CONTINUOUS
 62
     7
 10
116.0117372077179
 20
8.185877299259161
 30
0.0
  0
VERTEX
  5
1E3
  8
__
  6
CONTINUOUS
 62
     7
 10
107.8666654987864
 20
-8.185877299259161
 30
0.0
 42
0.5568826053827942
 70
     2
 50
-28.50508355380664
  0
VERTEX
  5
1E4
  8
__
  6
CONTINUOUS
 62
     7
 10
149.2522684710029
 20
-75.0
 30
0.0
 42
0.556882605382796
 70
     2
 50
1.039328778465266E+16
  0
VERTEX
  5
1E5
  8
__
  6
CONTINUOUS
 62
     7
 10
190.6378714432193
 20
-8.185877299259161
 30
0.0
  0
VERTEX
  5
1E6
  8
__
  6
CONTINUOUS
 62
     7
 10
182.4927997342879
 20
8.185877299259161
 30
0.0
 42
-0.5568826053827951
 70
     2
 50
28.50508355380675
  0
VERTEX
  5
1E7
  8
__
  6
CONTINUOUS
 62
     7
 10
223.8784027065043
 20
75.0
 30
0.0
 42
-0.5568826053828009
 70
     2
 50
-4724125278320604
  0
VERTEX
  5
1E8
  8
__
  6
CONTINUOUS
 62
     7
 10
265.2640056787208
 20
8.185877299259161
 30
0.0
  0
VERTEX
  5
1E9
  8
__
  6
CONTINUOUS
 62
     7
 10
257.1189339697893
 20
-8.185877299259161
 30
0.0
 42
0.5568826053828014
 70
     2
 50
-28.50508355380743
  0
VERTEX
  5
1EA
  8
__
  6
CONTINUOUS
 62
     7
 10
298.5045369420058
 20
-75.0
 30
0.0
 42
0.5568826053828022
 70
     2
 50
3749053927722690
  0
VERTEX
  5
1EB
  8
__
  6
CONTINUOUS
 62
     7
 10
339.8901399142222
 20
-8.185877299259133
 30
0.0
  0
VERTEX
  5
1EC
  8
__
  6
CONTINUOUS
 62
     7
 10
331.7450682052907
 20
8.185877299259133
 30
0.0
 42
-0.5568826053828022
 70
     2
 50
28.50508355380751
  0
VERTEX
  5
1ED
  8
__
  6
CONTINUOUS
 62
     7
 10
373.1306711775072
 20
75.0
 30
0.0
 42
-0.556882605382802
 70
     2
 50
-3873202019255958
  0
VERTEX
  5
1EE
  8
__
  6
CONTINUOUS
 62
     7
 10
414.5162741497237
 20
8.185877299259175
 30
0.0
  0
VERTEX
  5
1EF
  8
__
  6
CONTINUOUS
 62
     7
 10
406.3712024407922
 20
-8.18587729925919
 30
0.0
 42
0.5568826053828003
 70
     2
 50
-28.50508355380734
  0
VERTEX
  5
1F0
  8
__
  6
CONTINUOUS
 62
     7
 10
447.7568054130086
 20
-75.0
 30
0.0
 42
0.5568826053828017
 70
     2
 50
4242129117508096
  0
VERTEX
  5
1F1
  8
__
  6
CONTINUOUS
 62
     7
 10
489.1424083852251
 20
-8.18587729925919
 30
0.0
  0
VERTEX
  5
1F2
  8
__
  6
CONTINUOUS
 62
     7
 10
480.9973366762936
 20
8.185877299259133
 30
0.0
 42
-0.5568826053828022
 70
     2
 50
28.50508355380751
  0
VERTEX
  5
1F3
  8
__
  6
CONTINUOUS
 62
     7
 10
522.38293964851
 20
75.0
 30
0.0
 42
-0.5568826053828009
 70
     2
 50
-4724125278320604
  0
VERTEX
  5
1F4
  8
__
  6
CONTINUOUS
 62
     7
 10
563.7685426207265
 20
8.185877299259133
 30
0.0
  0
VERTEX
  5
1F5
  8
__
  6
CONTINUOUS
 62
     7
 10
555.623470911795
 20
-8.185877299259133
 30
0.0
 42
0.5568826053828009
 70
     2
 50
-28.5050835538074
  0
VERTEX
  5
1F6
  8
__
  6
CONTINUOUS
 62
     7
 10
597.0090738840115
 20
-75.0
 30
0.0
 42
0.5568826053828022
 70
     2
 50
3749053927722690
  0
VERTEX
  5
1F7
  8
__
  6
CONTINUOUS
 62
     7
 10
638.394676856228
 20
-8.185877299259133
 30
0.0
  0
VERTEX
  5
1F8
  8
__
  6
CONTINUOUS
 62
     7
 10
630.2496051472965
 20
8.185877299259133
 30
0.0
 42
-0.5568826053828022
 70
     2
 50
28.50508355380751
  0
VERTEX
  5
1F9
  8
__
  6
CONTINUOUS
 62
     7
 10
671.635208119513
 20
75.0
 30
0.0
 42
-0.5568826053828009
 70
     2
 50
-4724125278320604
  0
VERTEX
  5
1FA
  8
__
  6
CONTINUOUS
 62
     7
 10
713.0208110917295
 20
8.185877299259133
 30
0.0
  0
VERTEX
  5
1FB
  8
__
  6
CONTINUOUS
 62
     7
 10
704.875739382798
 20
-8.185877299259133
 30
0.0
 42
0.5568826053828009
 70
     2
 50
-28.5050835538074
  0
VERTEX
  5
1FC
  8
__
  6
CONTINUOUS
 62
     7
 10
746.2613423550144
 20
-75.0
 30
0.0
 42
0.5568826053828022
 70
     2
 50
3749053927722690
  0
VERTEX
  5
1FD
  8
__
  6
CONTINUOUS
 62
     7
 10
787.6469453272309
 20
-8.185877299259133
 30
0.0
  0
VERTEX
  5
1FE
  8
__
  6
CONTINUOUS
 62
     7
 10
779.5018736182994
 20
8.185877299259133
 30
0.0
 42
-0.5568826053828022
 70
     2
 50
28.50508355380751
  0
VERTEX
  5
1FF
  8
__
  6
CONTINUOUS
 62
     7
 10
820.8874765905159
 20
75.0
 30
0.0
 42
-0.5568826053828009
 70
     2
 50
-4724125278320604
  0
VERTEX
  5
200
  8
__
  6
CONTINUOUS
 62
     7
 10
862.2730795627324
 20
8.185877299259133
 30
0.0
  0
VERTEX
  5
201
  8
__
  6
CONTINUOUS
 62
     7
 10
854.1280078538009
 20
-8.185877299259133
 30
0.0
 42
0.5568826053828009
 70
     2
 50
-28.5050835538074
  0
VERTEX
  5
202
  8
__
  6
CONTINUOUS
 62
     7
 10
895.5136108260174
 20
-75.0
 30
0.0
 42
0.5568826053828022
 70
     2
 50
3749053927722690
  0
VERTEX
  5
203
  8
__
  6
CONTINUOUS
 62
     7
 10
936.8992137982339
 20
-8.185877299259133
 30
0.0
  0
VERTEX
  5
204
  8
__
  6
CONTINUOUS
 62
     7
 10
928.7541420893024
 20
8.185877299259133
 30
0.0
 42
-0.5568826053828022
 70
     2
 50
28.50508355380751
  0
VERTEX
  5
205
  8
__
  6
CONTINUOUS
 62
     7
 10
970.1397450615189
 20
75.0
 30
0.0
 42
-0.5568826053828009
 70
     2
 50
-4724125278320604
  0
VERTEX
  5
206
  8
__
  6
CONTINUOUS
 62
     7
 10
1011.525348033735
 20
8.185877299259133
 30
0.0
  0
VERTEX
  5
207
  8
__
  6
CONTINUOUS
 62
     7
 10
1003.380276324804
 20
-8.185877299259133
 30
0.0
 42
0.556882605382802
 70
     2
 50
-28.50508355380746
  0
VERTEX
  5
208
  8
__
  6
CONTINUOUS
 62
     7
 10
1044.76587929702
 20
-75.0
 30
0.0
 42
0.5568826053828022
 70
     2
 50
3749053927722690
  0
VERTEX
  5
209
  8
__
  6
CONTINUOUS
 62
     7
 10
1086.151482269237
 20
-8.185877299259133
 30
0.0
  0
VERTEX
  5
20A
  8
__
  6
CONTINUOUS
 62
     7
 10
1078.006410560305
 20
8.185877299259133
 30
0.0
 42
-0.5568826053828022
 70
     2
 50
28.50508355380751
  0
VERTEX
  5
20B
  8
__
  6
CONTINUOUS
 62
     7
 10
1119.392013532522
 20
75.0
 30
0.0
 42
-0.556882605382802
 70
     2
 50
-3873202019255958
  0
VERTEX
  5
20C
  8
__
  6
CONTINUOUS
 62
     7
 10
1160.777616504738
 20
8.185877299259133
 30
0.0
  0
VERTEX
  5
20D
  8
__
  6
CONTINUOUS
 62
     7
 10
1152.632544795807
 20
-8.185877299259133
 30
0.0
 42
0.556882605382802
 70
     2
 50
-28.50508355380746
  0
VERTEX
  5
20E
  8
__
  6
CONTINUOUS
 62
     7
 10
1194.018147768023
 20
-75.0
 30
0.0
 42
0.5568826053828022
 70
     2
 50
3749053927722690
  0
VERTEX
  5
20F
  8
__
  6
CONTINUOUS
 62
     7
 10
1235.40375074024
 20
-8.185877299259133
 30
0.0
  0
VERTEX
  5
210
  8
__
  6
CONTINUOUS
 62
     7
 10
1227.258679031308
 20
8.185877299259133
 30
0.0
 42
-0.5568826053828022
 70
     2
 50
28.50508355380751
  0
VERTEX
  5
211
  8
__
  6
CONTINUOUS
 62
     7
 10
1268.644282003525
 20
75.0
 30
0.0
 42
-0.556882605382802
 70
     2
 50
-3873202019255958
  0
VERTEX
  5
212
  8
__
  6
CONTINUOUS
 62
     7
 10
1310.029884975741
 20
8.185877299259133
 30
0.0
  0
VERTEX
  5
213
  8
__
  6
CONTINUOUS
 62
     7
 10
1301.88481326681
 20
-8.185877299259133
 30
0.0
 42
0.556882605382802
 70
     2
 50
-28.50508355380746
  0
VERTEX
  5
214
  8
__
  6
CONTINUOUS
 62
     7
 10
1343.270416239026
 20
-75.0
 30
0.0
 42
0.5568826053828022
 70
     2
 50
3749053927722690
  0
VERTEX
  5
215
  8
__
  6
CONTINUOUS
 62
     7
 10
1384.656019211243
 20
-8.185877299259133
 30
0.0
  0
VERTEX
  5
216
  8
__
  6
CONTINUOUS
 62
     7
 10
1376.510947502311
 20
8.185877299259133
 30
0.0
 42
-0.5568826053828022
 70
     2
 50
28.50508355380751
  0
VERTEX
  5
217
  8
__
  6
CONTINUOUS
 62
     7
 10
1417.896550474528
 20
75.0
 30
0.0
 42
-0.556882605382802
 70
     2
 50
-3873202019255958
  0
VERTEX
  5
218
  8
__
  6
CONTINUOUS
 62
     7
 10
1459.282153446744
 20
8.185877299259133
 30
0.0
  0
VERTEX
  5
219
  8
__
  6
CONTINUOUS
 62
     7
 10
1451.137081737813
 20
-8.185877299259133
 30
0.0
 42
0.556882605382802
 70
     2
 50
-28.50508355380746
  0
VERTEX
  5
21A
  8
__
  6
CONTINUOUS
 62
     7
 10
1492.522684710029
 20
-75.0
 30
0.0
 42
0.5568826053828022
 70
     2
 50
3749053927722690
  0
VERTEX
  5
21B
  8
__
  6
CONTINUOUS
 62
     7
 10
1533.908287682246
 20
-8.185877299259133
 30
0.0
  0
VERTEX
  5
21C
  8
__
  6
CONTINUOUS
 62
     7
 10
1525.763215973314
 20
8.185877299259133
 30
0.0
 42
-0.5568826053828022
 70
     2
 50
28.50508355380751
  0
VERTEX
  5
21D
  8
__
  6
CONTINUOUS
 62
     7
 10
1567.148818945531
 20
75.0
 30
0.0
 42
-0.556882605382802
 70
     2
 50
-3873202019255958
  0
VERTEX
  5
21E
  8
__
  6
CONTINUOUS
 62
     7
 10
1608.534421917747
 20
8.185877299259133
 30
0.0
  0
VERTEX
  5
21F
  8
__
  6
CONTINUOUS
 62
     7
 10
1600.389350208816
 20
-8.185877299259133
 30
0.0
 42
0.556882605382802
 70
     2
 50
-28.50508355380746
  0
VERTEX
  5
220
  8
__
  6
CONTINUOUS
 62
     7
 10
1641.774953181032
 20
-75.0
 30
0.0
 42
0.5568826053828022
 70
     2
 50
3749053927722690
  0
VERTEX
  5
221
  8
__
  6
CONTINUOUS
 62
     7
 10
1683.160556153249
 20
-8.185877299259133
 30
0.0
  0
VERTEX
  5
222
  8
__
  6
CONTINUOUS
 62
     7
 10
1675.015484444317
 20
8.185877299259133
 30
0.0
 42
-0.5568826053828022
 70
     2
 50
28.50508355380751
  0
VERTEX
  5
223
  8
__
  6
CONTINUOUS
 62
     7
 10
1716.401087416534
 20
75.0
 30
0.0
 42
-0.556882605382802
 70
     2
 50
-3873202019255958
  0
VERTEX
  5
224
  8
__
  6
CONTINUOUS
 62
     7
 10
1757.78669038875
 20
8.185877299259133
 30
0.0
  0
VERTEX
  5
225
  8
__
  6
CONTINUOUS
 62
     7
 10
1749.641618679819
 20
-8.185877299259133
 30
0.0
 42
0.556882605382802
 70
     2
 50
-28.50508355380746
  0
VERTEX
  5
226
  8
__
  6
CONTINUOUS
 62
     7
 10
1791.027221652035
 20
-75.0
 30
0.0
 42
0.5568826053828022
 70
     2
 50
3749053927722690
  0
VERTEX
  5
227
  8
__
  6
CONTINUOUS
 62
     7
 10
1832.412824624251
 20
-8.185877299259133
 30
0.0
  0
VERTEX
  5
228
  8
__
  6
CONTINUOUS
 62
     7
 10
1824.26775291532
 20
8.185877299259133
 30
0.0
 42
-0.5568826053828022
 70
     2
 50
28.50508355380751
  0
VERTEX
  5
229
  8
__
  6
CONTINUOUS
 62
     7
 10
1865.653355887536
 20
75.0
 30
0.0
 42
-0.556882605382802
 70
     2
 50
-3873202019255958
  0
VERTEX
  5
22A
  8
__
  6
CONTINUOUS
 62
     7
 10
1907.038958859753
 20
8.185877299259133
 30
0.0
  0
VERTEX
  5
22B
  8
__
  6
CONTINUOUS
 62
     7
 10
1898.893887150821
 20
-8.185877299259133
 30
0.0
 42
0.556882605382802
 70
     2
 50
-28.50508355380746
  0
VERTEX
  5
22C
  8
__
  6
CONTINUOUS
 62
     7
 10
1940.279490123038
 20
-75.0
 30
0.0
  0
SEQEND
  5
22D
  8
__
  6
CONTINUOUS
 62
     7
  0
ENDBLK
  5
7C
  8
0
  0
BLOCK
  8
0
  2
BATT_INSULATION-5
 70
     0
 10
0.0
 20
0.0
 30
0.0
  3
BATT_INSULATION-5
  1

  0
POLYLINE
  5
22E
  8
__
  6
CONTINUOUS
 62
     7
 66
     1
 10
0.0
 20
0.0
 30
0.0
 70
   128
  0
VERTEX
  5
22F
  8
__
  6
CONTINUOUS
 62
     7
 10
0.0
 20
-75.0
 30
0.0
 42
0.5568826053827942
 70
     2
 50
2.011625945540938E+16
  0
VERTEX
  5
230
  8
__
  6
CONTINUOUS
 62
     7
 10
41.38560297221644
 20
-8.185877299259161
 30
0.0
  0
VERTEX
  5
231
  8
__
  6
CONTINUOUS
 62
     7
 10
33.240531263285
 20
8.185877299259161
 30
0.0
 42
-0.5568826053827943
 70
     2
 50
28.50508355380668
  0
VERTEX
  5
232
  8
__
  6
CONTINUOUS
 62
     7
 10
74.62613423550144
 20
75.0
 30
0.0
 42
-0.5568826053827937
 70
     2
 50
-3.897154736081378E+16
  0
VERTEX
  5
233
  8
__
  6
CONTINUOUS
 62
     7
 10
116.0117372077179
 20
8.185877299259161
 30
0.0
  0
VERTEX
  5
234
  8
__
  6
CONTINUOUS
 62
     7
 10
107.8666654987864
 20
-8.185877299259161
 30
0.0
 42
0.5568826053827942
 70
     2
 50
-28.50508355380664
  0
VERTEX
  5
235
  8
__
  6
CONTINUOUS
 62
     7
 10
149.2522684710029
 20
-75.0
 30
0.0
 42
0.556882605382796
 70
     2
 50
1.039328778465266E+16
  0
VERTEX
  5
236
  8
__
  6
CONTINUOUS
 62
     7
 10
190.6378714432193
 20
-8.185877299259161
 30
0.0
  0
VERTEX
  5
237
  8
__
  6
CONTINUOUS
 62
     7
 10
182.4927997342879
 20
8.185877299259161
 30
0.0
 42
-0.5568826053827951
 70
     2
 50
28.50508355380675
  0
VERTEX
  5
238
  8
__
  6
CONTINUOUS
 62
     7
 10
223.8784027065043
 20
75.0
 30
0.0
 42
-0.5568826053828009
 70
     2
 50
-4724125278320604
  0
VERTEX
  5
239
  8
__
  6
CONTINUOUS
 62
     7
 10
265.2640056787208
 20
8.185877299259161
 30
0.0
  0
VERTEX
  5
23A
  8
__
  6
CONTINUOUS
 62
     7
 10
257.1189339697893
 20
-8.185877299259161
 30
0.0
 42
0.5568826053828014
 70
     2
 50
-28.50508355380743
  0
VERTEX
  5
23B
  8
__
  6
CONTINUOUS
 62
     7
 10
298.5045369420058
 20
-75.0
 30
0.0
 42
0.5568826053828022
 70
     2
 50
3749053927722690
  0
VERTEX
  5
23C
  8
__
  6
CONTINUOUS
 62
     7
 10
339.8901399142222
 20
-8.185877299259133
 30
0.0
  0
VERTEX
  5
23D
  8
__
  6
CONTINUOUS
 62
     7
 10
331.7450682052907
 20
8.185877299259133
 30
0.0
 42
-0.5568826053828022
 70
     2
 50
28.50508355380751
  0
VERTEX
  5
23E
  8
__
  6
CONTINUOUS
 62
     7
 10
373.1306711775072
 20
75.0
 30
0.0
 42
-0.556882605382802
 70
     2
 50
-3873202019255958
  0
VERTEX
  5
23F
  8
__
  6
CONTINUOUS
 62
     7
 10
414.5162741497237
 20
8.185877299259175
 30
0.0
  0
VERTEX
  5
240
  8
__
  6
CONTINUOUS
 62
     7
 10
406.3712024407922
 20
-8.18587729925919
 30
0.0
 42
0.5568826053828003
 70
     2
 50
-28.50508355380734
  0
VERTEX
  5
241
  8
__
  6
CONTINUOUS
 62
     7
 10
447.7568054130086
 20
-75.0
 30
0.0
 42
0.5568826053828017
 70
     2
 50
4242129117508096
  0
VERTEX
  5
242
  8
__
  6
CONTINUOUS
 62
     7
 10
489.1424083852251
 20
-8.18587729925919
 30
0.0
  0
VERTEX
  5
243
  8
__
  6
CONTINUOUS
 62
     7
 10
480.9973366762936
 20
8.185877299259133
 30
0.0
 42
-0.5568826053828022
 70
     2
 50
28.50508355380751
  0
VERTEX
  5
244
  8
__
  6
CONTINUOUS
 62
     7
 10
522.38293964851
 20
75.0
 30
0.0
 42
-0.5568826053828009
 70
     2
 50
-4724125278320604
  0
VERTEX
  5
245
  8
__
  6
CONTINUOUS
 62
     7
 10
563.7685426207265
 20
8.185877299259133
 30
0.0
  0
VERTEX
  5
246
  8
__
  6
CONTINUOUS
 62
     7
 10
555.623470911795
 20
-8.185877299259133
 30
0.0
 42
0.5568826053828009
 70
     2
 50
-28.5050835538074
  0
VERTEX
  5
247
  8
__
  6
CONTINUOUS
 62
     7
 10
597.0090738840115
 20
-75.0
 30
0.0
 42
0.5568826053828022
 70
     2
 50
3749053927722690
  0
VERTEX
  5
248
  8
__
  6
CONTINUOUS
 62
     7
 10
638.394676856228
 20
-8.185877299259133
 30
0.0
  0
VERTEX
  5
249
  8
__
  6
CONTINUOUS
 62
     7
 10
630.2496051472965
 20
8.185877299259133
 30
0.0
 42
-0.5568826053828022
 70
     2
 50
28.50508355380751
  0
VERTEX
  5
24A
  8
__
  6
CONTINUOUS
 62
     7
 10
671.635208119513
 20
75.0
 30
0.0
 42
-0.5568826053828009
 70
     2
 50
-4724125278320604
  0
VERTEX
  5
24B
  8
__
  6
CONTINUOUS
 62
     7
 10
713.0208110917295
 20
8.185877299259133
 30
0.0
  0
VERTEX
  5
24C
  8
__
  6
CONTINUOUS
 62
     7
 10
704.875739382798
 20
-8.185877299259133
 30
0.0
 42
0.5568826053828009
 70
     2
 50
-28.5050835538074
  0
VERTEX
  5
24D
  8
__
  6
CONTINUOUS
 62
     7
 10
746.2613423550144
 20
-75.0
 30
0.0
 42
0.5568826053828022
 70
     2
 50
3749053927722690
  0
VERTEX
  5
24E
  8
__
  6
CONTINUOUS
 62
     7
 10
787.6469453272309
 20
-8.185877299259133
 30
0.0
  0
VERTEX
  5
24F
  8
__
  6
CONTINUOUS
 62
     7
 10
779.5018736182994
 20
8.185877299259133
 30
0.0
 42
-0.5568826053828022
 70
     2
 50
28.50508355380751
  0
VERTEX
  5
250
  8
__
  6
CONTINUOUS
 62
     7
 10
820.8874765905159
 20
75.0
 30
0.0
 42
-0.5568826053828009
 70
     2
 50
-4724125278320604
  0
VERTEX
  5
251
  8
__
  6
CONTINUOUS
 62
     7
 10
862.2730795627324
 20
8.185877299259133
 30
0.0
  0
VERTEX
  5
252
  8
__
  6
CONTINUOUS
 62
     7
 10
854.1280078538009
 20
-8.185877299259133
 30
0.0
 42
0.5568826053828009
 70
     2
 50
-28.5050835538074
  0
VERTEX
  5
253
  8
__
  6
CONTINUOUS
 62
     7
 10
895.5136108260174
 20
-75.0
 30
0.0
 42
0.5568826053828022
 70
     2
 50
3749053927722690
  0
VERTEX
  5
254
  8
__
  6
CONTINUOUS
 62
     7
 10
936.8992137982339
 20
-8.185877299259133
 30
0.0
  0
VERTEX
  5
255
  8
__
  6
CONTINUOUS
 62
     7
 10
928.7541420893024
 20
8.185877299259133
 30
0.0
 42
-0.5568826053828022
 70
     2
 50
28.50508355380751
  0
VERTEX
  5
256
  8
__
  6
CONTINUOUS
 62
     7
 10
970.1397450615189
 20
75.0
 30
0.0
 42
-0.5568826053828009
 70
     2
 50
-4724125278320604
  0
VERTEX
  5
257
  8
__
  6
CONTINUOUS
 62
     7
 10
1011.525348033735
 20
8.185877299259133
 30
0.0
  0
VERTEX
  5
258
  8
__
  6
CONTINUOUS
 62
     7
 10
1003.380276324804
 20
-8.185877299259133
 30
0.0
 42
0.556882605382802
 70
     2
 50
-28.50508355380746
  0
VERTEX
  5
259
  8
__
  6
CONTINUOUS
 62
     7
 10
1044.76587929702
 20
-75.0
 30
0.0
 42
0.5568826053828022
 70
     2
 50
3749053927722690
  0
VERTEX
  5
25A
  8
__
  6
CONTINUOUS
 62
     7
 10
1086.151482269237
 20
-8.185877299259133
 30
0.0
  0
VERTEX
  5
25B
  8
__
  6
CONTINUOUS
 62
     7
 10
1078.006410560305
 20
8.185877299259133
 30
0.0
 42
-0.5568826053828022
 70
     2
 50
28.50508355380751
  0
VERTEX
  5
25C
  8
__
  6
CONTINUOUS
 62
     7
 10
1119.392013532522
 20
75.0
 30
0.0
 42
-0.556882605382802
 70
     2
 50
-3873202019255958
  0
VERTEX
  5
25D
  8
__
  6
CONTINUOUS
 62
     7
 10
1160.777616504738
 20
8.185877299259133
 30
0.0
  0
VERTEX
  5
25E
  8
__
  6
CONTINUOUS
 62
     7
 10
1152.632544795807
 20
-8.185877299259133
 30
0.0
 42
0.556882605382802
 70
     2
 50
-28.50508355380746
  0
VERTEX
  5
25F
  8
__
  6
CONTINUOUS
 62
     7
 10
1194.018147768023
 20
-75.0
 30
0.0
 42
0.5568826053828022
 70
     2
 50
3749053927722690
  0
VERTEX
  5
260
  8
__
  6
CONTINUOUS
 62
     7
 10
1235.40375074024
 20
-8.185877299259133
 30
0.0
  0
VERTEX
  5
261
  8
__
  6
CONTINUOUS
 62
     7
 10
1227.258679031308
 20
8.185877299259133
 30
0.0
 42
-0.5568826053828022
 70
     2
 50
28.50508355380751
  0
VERTEX
  5
262
  8
__
  6
CONTINUOUS
 62
     7
 10
1268.644282003525
 20
75.0
 30
0.0
 42
-0.556882605382802
 70
     2
 50
-3873202019255958
  0
VERTEX
  5
263
  8
__
  6
CONTINUOUS
 62
     7
 10
1310.029884975741
 20
8.185877299259133
 30
0.0
  0
VERTEX
  5
264
  8
__
  6
CONTINUOUS
 62
     7
 10
1301.88481326681
 20
-8.185877299259133
 30
0.0
 42
0.556882605382802
 70
     2
 50
-28.50508355380746
  0
VERTEX
  5
265
  8
__
  6
CONTINUOUS
 62
     7
 10
1343.270416239026
 20
-75.0
 30
0.0
 42
0.5568826053828022
 70
     2
 50
3749053927722690
  0
VERTEX
  5
266
  8
__
  6
CONTINUOUS
 62
     7
 10
1384.656019211243
 20
-8.185877299259133
 30
0.0
  0
VERTEX
  5
267
  8
__
  6
CONTINUOUS
 62
     7
 10
1376.510947502311
 20
8.185877299259133
 30
0.0
 42
-0.5568826053828022
 70
     2
 50
28.50508355380751
  0
VERTEX
  5
268
  8
__
  6
CONTINUOUS
 62
     7
 10
1417.896550474528
 20
75.0
 30
0.0
 42
-0.556882605382802
 70
     2
 50
-3873202019255958
  0
VERTEX
  5
269
  8
__
  6
CONTINUOUS
 62
     7
 10
1459.282153446744
 20
8.185877299259133
 30
0.0
  0
VERTEX
  5
26A
  8
__
  6
CONTINUOUS
 62
     7
 10
1451.137081737813
 20
-8.185877299259133
 30
0.0
 42
0.556882605382802
 70
     2
 50
-28.50508355380746
  0
VERTEX
  5
26B
  8
__
  6
CONTINUOUS
 62
     7
 10
1492.522684710029
 20
-75.0
 30
0.0
 42
0.5568826053828022
 70
     2
 50
3749053927722690
  0
VERTEX
  5
26C
  8
__
  6
CONTINUOUS
 62
     7
 10
1533.908287682246
 20
-8.185877299259133
 30
0.0
  0
VERTEX
  5
26D
  8
__
  6
CONTINUOUS
 62
     7
 10
1525.763215973314
 20
8.185877299259133
 30
0.0
 42
-0.5568826053828022
 70
     2
 50
28.50508355380751
  0
VERTEX
  5
26E
  8
__
  6
CONTINUOUS
 62
     7
 10
1567.148818945531
 20
75.0
 30
0.0
 42
-0.556882605382802
 70
     2
 50
-3873202019255958
  0
VERTEX
  5
26F
  8
__
  6
CONTINUOUS
 62
     7
 10
1608.534421917747
 20
8.185877299259133
 30
0.0
  0
VERTEX
  5
270
  8
__
  6
CONTINUOUS
 62
     7
 10
1600.389350208816
 20
-8.185877299259133
 30
0.0
 42
0.556882605382802
 70
     2
 50
-28.50508355380746
  0
VERTEX
  5
271
  8
__
  6
CONTINUOUS
 62
     7
 10
1641.774953181032
 20
-75.0
 30
0.0
 42
0.5568826053828022
 70
     2
 50
3749053927722690
  0
VERTEX
  5
272
  8
__
  6
CONTINUOUS
 62
     7
 10
1683.160556153249
 20
-8.185877299259133
 30
0.0
  0
VERTEX
  5
273
  8
__
  6
CONTINUOUS
 62
     7
 10
1675.015484444317
 20
8.185877299259133
 30
0.0
 42
-0.5568826053828022
 70
     2
 50
28.50508355380751
  0
VERTEX
  5
274
  8
__
  6
CONTINUOUS
 62
     7
 10
1716.401087416534
 20
75.0
 30
0.0
 42
-0.556882605382802
 70
     2
 50
-3873202019255958
  0
VERTEX
  5
275
  8
__
  6
CONTINUOUS
 62
     7
 10
1757.78669038875
 20
8.185877299259133
 30
0.0
  0
VERTEX
  5
276
  8
__
  6
CONTINUOUS
 62
     7
 10
1749.641618679819
 20
-8.185877299259133
 30
0.0
 42
0.556882605382802
 70
     2
 50
-28.50508355380746
  0
VERTEX
  5
277
  8
__
  6
CONTINUOUS
 62
     7
 10
1791.027221652035
 20
-75.0
 30
0.0
 42
0.5568826053828022
 70
     2
 50
3749053927722690
  0
VERTEX
  5
278
  8
__
  6
CONTINUOUS
 62
     7
 10
1832.412824624251
 20
-8.185877299259133
 30
0.0
  0
VERTEX
  5
279
  8
__
  6
CONTINUOUS
 62
     7
 10
1824.26775291532
 20
8.185877299259133
 30
0.0
 42
-0.5568826053828022
 70
     2
 50
28.50508355380751
  0
VERTEX
  5
27A
  8
__
  6
CONTINUOUS
 62
     7
 10
1865.653355887536
 20
75.0
 30
0.0
 42
-0.556882605382802
 70
     2
 50
-3873202019255958
  0
VERTEX
  5
27B
  8
__
  6
CONTINUOUS
 62
     7
 10
1907.038958859753
 20
8.185877299259133
 30
0.0
  0
VERTEX
  5
27C
  8
__
  6
CONTINUOUS
 62
     7
 10
1898.893887150821
 20
-8.185877299259133
 30
0.0
 42
0.556882605382802
 70
     2
 50
-28.50508355380746
  0
VERTEX
  5
27D
  8
__
  6
CONTINUOUS
 62
     7
 10
1940.279490123038
 20
-75.0
 30
0.0
  0
SEQEND
  5
27E
  8
__
  6
CONTINUOUS
 62
     7
  0
ENDBLK
  5
7F
  8
0
  0
BLOCK
  8
0
  2
BATT_INSULATION-6
 70
     0
 10
0.0
 20
0.0
 30
0.0
  3
BATT_INSULATION-6
  1

  0
POLYLINE
  5
27F
  8
__
  6
CONTINUOUS
 62
     7
 66
     1
 10
0.0
 20
0.0
 30
0.0
 70
   128
  0
VERTEX
  5
280
  8
__
  6
CONTINUOUS
 62
     7
 10
0.0
 20
-75.0
 30
0.0
 42
0.5568826053827942
 70
     2
 50
2.011625945540938E+16
  0
VERTEX
  5
281
  8
__
  6
CONTINUOUS
 62
     7
 10
41.38560297221644
 20
-8.185877299259161
 30
0.0
  0
VERTEX
  5
282
  8
__
  6
CONTINUOUS
 62
     7
 10
33.240531263285
 20
8.185877299259161
 30
0.0
 42
-0.5568826053827943
 70
     2
 50
28.50508355380668
  0
VERTEX
  5
283
  8
__
  6
CONTINUOUS
 62
     7
 10
74.62613423550144
 20
75.0
 30
0.0
 42
-0.5568826053827937
 70
     2
 50
-3.897154736081378E+16
  0
VERTEX
  5
284
  8
__
  6
CONTINUOUS
 62
     7
 10
116.0117372077179
 20
8.185877299259161
 30
0.0
  0
VERTEX
  5
285
  8
__
  6
CONTINUOUS
 62
     7
 10
107.8666654987864
 20
-8.185877299259161
 30
0.0
 42
0.5568826053827942
 70
     2
 50
-28.50508355380664
  0
VERTEX
  5
286
  8
__
  6
CONTINUOUS
 62
     7
 10
149.2522684710029
 20
-75.0
 30
0.0
 42
0.556882605382796
 70
     2
 50
1.039328778465266E+16
  0
VERTEX
  5
287
  8
__
  6
CONTINUOUS
 62
     7
 10
190.6378714432193
 20
-8.185877299259161
 30
0.0
  0
VERTEX
  5
288
  8
__
  6
CONTINUOUS
 62
     7
 10
182.4927997342879
 20
8.185877299259161
 30
0.0
 42
-0.5568826053827951
 70
     2
 50
28.50508355380675
  0
VERTEX
  5
289
  8
__
  6
CONTINUOUS
 62
     7
 10
223.8784027065043
 20
75.0
 30
0.0
 42
-0.5568826053828009
 70
     2
 50
-4724125278320604
  0
VERTEX
  5
28A
  8
__
  6
CONTINUOUS
 62
     7
 10
265.2640056787208
 20
8.185877299259161
 30
0.0
  0
VERTEX
  5
28B
  8
__
  6
CONTINUOUS
 62
     7
 10
257.1189339697893
 20
-8.185877299259161
 30
0.0
 42
0.5568826053828014
 70
     2
 50
-28.50508355380743
  0
VERTEX
  5
28C
  8
__
  6
CONTINUOUS
 62
     7
 10
298.5045369420058
 20
-75.0
 30
0.0
 42
0.5568826053828022
 70
     2
 50
3749053927722690
  0
VERTEX
  5
28D
  8
__
  6
CONTINUOUS
 62
     7
 10
339.8901399142222
 20
-8.185877299259133
 30
0.0
  0
VERTEX
  5
28E
  8
__
  6
CONTINUOUS
 62
     7
 10
331.7450682052907
 20
8.185877299259133
 30
0.0
 42
-0.5568826053828022
 70
     2
 50
28.50508355380751
  0
VERTEX
  5
28F
  8
__
  6
CONTINUOUS
 62
     7
 10
373.1306711775072
 20
75.0
 30
0.0
 42
-0.556882605382802
 70
     2
 50
-3873202019255958
  0
VERTEX
  5
290
  8
__
  6
CONTINUOUS
 62
     7
 10
414.5162741497237
 20
8.185877299259175
 30
0.0
  0
VERTEX
  5
291
  8
__
  6
CONTINUOUS
 62
     7
 10
406.3712024407922
 20
-8.18587729925919
 30
0.0
 42
0.5568826053828003
 70
     2
 50
-28.50508355380734
  0
VERTEX
  5
292
  8
__
  6
CONTINUOUS
 62
     7
 10
447.7568054130086
 20
-75.0
 30
0.0
 42
0.5568826053828017
 70
     2
 50
4242129117508096
  0
VERTEX
  5
293
  8
__
  6
CONTINUOUS
 62
     7
 10
489.1424083852251
 20
-8.18587729925919
 30
0.0
  0
VERTEX
  5
294
  8
__
  6
CONTINUOUS
 62
     7
 10
480.9973366762936
 20
8.185877299259133
 30
0.0
 42
-0.5568826053828022
 70
     2
 50
28.50508355380751
  0
VERTEX
  5
295
  8
__
  6
CONTINUOUS
 62
     7
 10
522.38293964851
 20
75.0
 30
0.0
 42
-0.5568826053828009
 70
     2
 50
-4724125278320604
  0
VERTEX
  5
296
  8
__
  6
CONTINUOUS
 62
     7
 10
563.7685426207265
 20
8.185877299259133
 30
0.0
  0
VERTEX
  5
297
  8
__
  6
CONTINUOUS
 62
     7
 10
555.623470911795
 20
-8.185877299259133
 30
0.0
 42
0.5568826053828009
 70
     2
 50
-28.5050835538074
  0
VERTEX
  5
298
  8
__
  6
CONTINUOUS
 62
     7
 10
597.0090738840115
 20
-75.0
 30
0.0
 42
0.5568826053828022
 70
     2
 50
3749053927722690
  0
VERTEX
  5
299
  8
__
  6
CONTINUOUS
 62
     7
 10
638.394676856228
 20
-8.185877299259133
 30
0.0
  0
VERTEX
  5
29A
  8
__
  6
CONTINUOUS
 62
     7
 10
630.2496051472965
 20
8.185877299259133
 30
0.0
 42
-0.5568826053828022
 70
     2
 50
28.50508355380751
  0
VERTEX
  5
29B
  8
__
  6
CONTINUOUS
 62
     7
 10
671.635208119513
 20
75.0
 30
0.0
 42
-0.5568826053828009
 70
     2
 50
-4724125278320604
  0
VERTEX
  5
29C
  8
__
  6
CONTINUOUS
 62
     7
 10
713.0208110917295
 20
8.185877299259133
 30
0.0
  0
VERTEX
  5
29D
  8
__
  6
CONTINUOUS
 62
     7
 10
704.875739382798
 20
-8.185877299259133
 30
0.0
 42
0.5568826053828009
 70
     2
 50
-28.5050835538074
  0
VERTEX
  5
29E
  8
__
  6
CONTINUOUS
 62
     7
 10
746.2613423550144
 20
-75.0
 30
0.0
 42
0.5568826053828022
 70
     2
 50
3749053927722690
  0
VERTEX
  5
29F
  8
__
  6
CONTINUOUS
 62
     7
 10
787.6469453272309
 20
-8.185877299259133
 30
0.0
  0
VERTEX
  5
2A0
  8
__
  6
CONTINUOUS
 62
     7
 10
779.5018736182994
 20
8.185877299259133
 30
0.0
 42
-0.5568826053828022
 70
     2
 50
28.50508355380751
  0
VERTEX
  5
2A1
  8
__
  6
CONTINUOUS
 62
     7
 10
820.8874765905159
 20
75.0
 30
0.0
 42
-0.5568826053828009
 70
     2
 50
-4724125278320604
  0
VERTEX
  5
2A2
  8
__
  6
CONTINUOUS
 62
     7
 10
862.2730795627324
 20
8.185877299259133
 30
0.0
  0
VERTEX
  5
2A3
  8
__
  6
CONTINUOUS
 62
     7
 10
854.1280078538009
 20
-8.185877299259133
 30
0.0
 42
0.5568826053828009
 70
     2
 50
-28.5050835538074
  0
VERTEX
  5
2A4
  8
__
  6
CONTINUOUS
 62
     7
 10
895.5136108260174
 20
-75.0
 30
0.0
 42
0.5568826053828022
 70
     2
 50
3749053927722690
  0
VERTEX
  5
2A5
  8
__
  6
CONTINUOUS
 62
     7
 10
936.8992137982339
 20
-8.185877299259133
 30
0.0
  0
VERTEX
  5
2A6
  8
__
  6
CONTINUOUS
 62
     7
 10
928.7541420893024
 20
8.185877299259133
 30
0.0
 42
-0.5568826053828022
 70
     2
 50
28.50508355380751
  0
VERTEX
  5
2A7
  8
__
  6
CONTINUOUS
 62
     7
 10
970.1397450615189
 20
75.0
 30
0.0
 42
-0.5568826053828009
 70
     2
 50
-4724125278320604
  0
VERTEX
  5
2A8
  8
__
  6
CONTINUOUS
 62
     7
 10
1011.525348033735
 20
8.185877299259133
 30
0.0
  0
VERTEX
  5
2A9
  8
__
  6
CONTINUOUS
 62
     7
 10
1003.380276324804
 20
-8.185877299259133
 30
0.0
 42
0.556882605382802
 70
     2
 50
-28.50508355380746
  0
VERTEX
  5
2AA
  8
__
  6
CONTINUOUS
 62
     7
 10
1044.76587929702
 20
-75.0
 30
0.0
 42
0.5568826053828022
 70
     2
 50
3749053927722690
  0
VERTEX
  5
2AB
  8
__
  6
CONTINUOUS
 62
     7
 10
1086.151482269237
 20
-8.185877299259133
 30
0.0
  0
VERTEX
  5
2AC
  8
__
  6
CONTINUOUS
 62
     7
 10
1078.006410560305
 20
8.185877299259133
 30
0.0
 42
-0.5568826053828022
 70
     2
 50
28.50508355380751
  0
VERTEX
  5
2AD
  8
__
  6
CONTINUOUS
 62
     7
 10
1119.392013532522
 20
75.0
 30
0.0
 42
-0.556882605382802
 70
     2
 50
-3873202019255958
  0
VERTEX
  5
2AE
  8
__
  6
CONTINUOUS
 62
     7
 10
1160.777616504738
 20
8.185877299259133
 30
0.0
  0
VERTEX
  5
2AF
  8
__
  6
CONTINUOUS
 62
     7
 10
1152.632544795807
 20
-8.185877299259133
 30
0.0
 42
0.556882605382802
 70
     2
 50
-28.50508355380746
  0
VERTEX
  5
2B0
  8
__
  6
CONTINUOUS
 62
     7
 10
1194.018147768023
 20
-75.0
 30
0.0
 42
0.5568826053828022
 70
     2
 50
3749053927722690
  0
VERTEX
  5
2B1
  8
__
  6
CONTINUOUS
 62
     7
 10
1235.40375074024
 20
-8.185877299259133
 30
0.0
  0
VERTEX
  5
2B2
  8
__
  6
CONTINUOUS
 62
     7
 10
1227.258679031308
 20
8.185877299259133
 30
0.0
 42
-0.5568826053828022
 70
     2
 50
28.50508355380751
  0
VERTEX
  5
2B3
  8
__
  6
CONTINUOUS
 62
     7
 10
1268.644282003525
 20
75.0
 30
0.0
 42
-0.556882605382802
 70
     2
 50
-3873202019255958
  0
VERTEX
  5
2B4
  8
__
  6
CONTINUOUS
 62
     7
 10
1310.029884975741
 20
8.185877299259133
 30
0.0
  0
VERTEX
  5
2B5
  8
__
  6
CONTINUOUS
 62
     7
 10
1301.88481326681
 20
-8.185877299259133
 30
0.0
 42
0.556882605382802
 70
     2
 50
-28.50508355380746
  0
VERTEX
  5
2B6
  8
__
  6
CONTINUOUS
 62
     7
 10
1343.270416239026
 20
-75.0
 30
0.0
 42
0.5568826053828022
 70
     2
 50
3749053927722690
  0
VERTEX
  5
2B7
  8
__
  6
CONTINUOUS
 62
     7
 10
1384.656019211243
 20
-8.185877299259133
 30
0.0
  0
VERTEX
  5
2B8
  8
__
  6
CONTINUOUS
 62
     7
 10
1376.510947502311
 20
8.185877299259133
 30
0.0
 42
-0.5568826053828022
 70
     2
 50
28.50508355380751
  0
VERTEX
  5
2B9
  8
__
  6
CONTINUOUS
 62
     7
 10
1417.896550474528
 20
75.0
 30
0.0
 42
-0.556882605382802
 70
     2
 50
-3873202019255958
  0
VERTEX
  5
2BA
  8
__
  6
CONTINUOUS
 62
     7
 10
1459.282153446744
 20
8.185877299259133
 30
0.0
  0
VERTEX
  5
2BB
  8
__
  6
CONTINUOUS
 62
     7
 10
1451.137081737813
 20
-8.185877299259133
 30
0.0
 42
0.556882605382802
 70
     2
 50
-28.50508355380746
  0
VERTEX
  5
2BC
  8
__
  6
CONTINUOUS
 62
     7
 10
1492.522684710029
 20
-75.0
 30
0.0
 42
0.5568826053828022
 70
     2
 50
3749053927722690
  0
VERTEX
  5
2BD
  8
__
  6
CONTINUOUS
 62
     7
 10
1533.908287682246
 20
-8.185877299259133
 30
0.0
  0
VERTEX
  5
2BE
  8
__
  6
CONTINUOUS
 62
     7
 10
1525.763215973314
 20
8.185877299259133
 30
0.0
 42
-0.5568826053828022
 70
     2
 50
28.50508355380751
  0
VERTEX
  5
2BF
  8
__
  6
CONTINUOUS
 62
     7
 10
1567.148818945531
 20
75.0
 30
0.0
 42
-0.556882605382802
 70
     2
 50
-3873202019255958
  0
VERTEX
  5
2C0
  8
__
  6
CONTINUOUS
 62
     7
 10
1608.534421917747
 20
8.185877299259133
 30
0.0
  0
VERTEX
  5
2C1
  8
__
  6
CONTINUOUS
 62
     7
 10
1600.389350208816
 20
-8.185877299259133
 30
0.0
 42
0.556882605382802
 70
     2
 50
-28.50508355380746
  0
VERTEX
  5
2C2
  8
__
  6
CONTINUOUS
 62
     7
 10
1641.774953181032
 20
-75.0
 30
0.0
 42
0.5568826053828022
 70
     2
 50
3749053927722690
  0
VERTEX
  5
2C3
  8
__
  6
CONTINUOUS
 62
     7
 10
1683.160556153249
 20
-8.185877299259133
 30
0.0
  0
VERTEX
  5
2C4
  8
__
  6
CONTINUOUS
 62
     7
 10
1675.015484444317
 20
8.185877299259133
 30
0.0
 42
-0.5568826053828022
 70
     2
 50
28.50508355380751
  0
VERTEX
  5
2C5
  8
__
  6
CONTINUOUS
 62
     7
 10
1716.401087416534
 20
75.0
 30
0.0
 42
-0.556882605382802
 70
     2
 50
-3873202019255958
  0
VERTEX
  5
2C6
  8
__
  6
CONTINUOUS
 62
     7
 10
1757.78669038875
 20
8.185877299259133
 30
0.0
  0
VERTEX
  5
2C7
  8
__
  6
CONTINUOUS
 62
     7
 10
1749.641618679819
 20
-8.185877299259133
 30
0.0
 42
0.556882605382802
 70
     2
 50
-28.50508355380746
  0
VERTEX
  5
2C8
  8
__
  6
CONTINUOUS
 62
     7
 10
1791.027221652035
 20
-75.0
 30
0.0
 42
0.5568826053828022
 70
     2
 50
3749053927722690
  0
VERTEX
  5
2C9
  8
__
  6
CONTINUOUS
 62
     7
 10
1832.412824624251
 20
-8.185877299259133
 30
0.0
  0
VERTEX
  5
2CA
  8
__
  6
CONTINUOUS
 62
     7
 10
1824.26775291532
 20
8.185877299259133
 30
0.0
 42
-0.5568826053828022
 70
     2
 50
28.50508355380751
  0
VERTEX
  5
2CB
  8
__
  6
CONTINUOUS
 62
     7
 10
1865.653355887536
 20
75.0
 30
0.0
 42
-0.556882605382802
 70
     2
 50
-3873202019255958
  0
VERTEX
  5
2CC
  8
__
  6
CONTINUOUS
 62
     7
 10
1907.038958859753
 20
8.185877299259133
 30
0.0
  0
VERTEX
  5
2CD
  8
__
  6
CONTINUOUS
 62
     7
 10
1898.893887150821
 20
-8.185877299259133
 30
0.0
 42
0.556882605382802
 70
     2
 50
-28.50508355380746
  0
VERTEX
  5
2CE
  8
__
  6
CONTINUOUS
 62
     7
 10
1940.279490123038
 20
-75.0
 30
0.0
  0
SEQEND
  5
2CF
  8
__
  6
CONTINUOUS
 62
     7
  0
ENDBLK
  5
82
  8
0
  0
BLOCK
  8
0
  2
BATT_INSULATION-7
 70
     0
 10
0.0
 20
0.0
 30
0.0
  3
BATT_INSULATION-7
  1

  0
POLYLINE
  5
2D0
  8
__
  6
CONTINUOUS
 62
     7
 66
     1
 10
0.0
 20
0.0
 30
0.0
 70
   128
  0
VERTEX
  5
2D1
  8
__
  6
CONTINUOUS
 62
     7
 10
0.0
 20
-75.0
 30
0.0
 42
0.5568826053827942
 70
     2
 50
2.011625945540938E+16
  0
VERTEX
  5
2D2
  8
__
  6
CONTINUOUS
 62
     7
 10
41.38560297221644
 20
-8.185877299259161
 30
0.0
  0
VERTEX
  5
2D3
  8
__
  6
CONTINUOUS
 62
     7
 10
33.240531263285
 20
8.185877299259161
 30
0.0
 42
-0.5568826053827943
 70
     2
 50
28.50508355380668
  0
VERTEX
  5
2D4
  8
__
  6
CONTINUOUS
 62
     7
 10
74.62613423550144
 20
75.0
 30
0.0
 42
-0.5568826053827937
 70
     2
 50
-3.897154736081378E+16
  0
VERTEX
  5
2D5
  8
__
  6
CONTINUOUS
 62
     7
 10
116.0117372077179
 20
8.185877299259161
 30
0.0
  0
VERTEX
  5
2D6
  8
__
  6
CONTINUOUS
 62
     7
 10
107.8666654987864
 20
-8.185877299259161
 30
0.0
 42
0.5568826053827942
 70
     2
 50
-28.50508355380664
  0
VERTEX
  5
2D7
  8
__
  6
CONTINUOUS
 62
     7
 10
149.2522684710029
 20
-75.0
 30
0.0
 42
0.556882605382796
 70
     2
 50
1.039328778465266E+16
  0
VERTEX
  5
2D8
  8
__
  6
CONTINUOUS
 62
     7
 10
190.6378714432193
 20
-8.185877299259161
 30
0.0
  0
VERTEX
  5
2D9
  8
__
  6
CONTINUOUS
 62
     7
 10
182.4927997342879
 20
8.185877299259161
 30
0.0
 42
-0.5568826053827951
 70
     2
 50
28.50508355380675
  0
VERTEX
  5
2DA
  8
__
  6
CONTINUOUS
 62
     7
 10
223.8784027065043
 20
75.0
 30
0.0
 42
-0.5568826053828009
 70
     2
 50
-4724125278320604
  0
VERTEX
  5
2DB
  8
__
  6
CONTINUOUS
 62
     7
 10
265.2640056787208
 20
8.185877299259161
 30
0.0
  0
VERTEX
  5
2DC
  8
__
  6
CONTINUOUS
 62
     7
 10
257.1189339697893
 20
-8.185877299259161
 30
0.0
 42
0.5568826053828014
 70
     2
 50
-28.50508355380743
  0
VERTEX
  5
2DD
  8
__
  6
CONTINUOUS
 62
     7
 10
298.5045369420058
 20
-75.0
 30
0.0
 42
0.5568826053828022
 70
     2
 50
3749053927722690
  0
VERTEX
  5
2DE
  8
__
  6
CONTINUOUS
 62
     7
 10
339.8901399142222
 20
-8.185877299259133
 30
0.0
  0
VERTEX
  5
2DF
  8
__
  6
CONTINUOUS
 62
     7
 10
331.7450682052907
 20
8.185877299259133
 30
0.0
 42
-0.5568826053828022
 70
     2
 50
28.50508355380751
  0
VERTEX
  5
2E0
  8
__
  6
CONTINUOUS
 62
     7
 10
373.1306711775072
 20
75.0
 30
0.0
 42
-0.556882605382802
 70
     2
 50
-3873202019255958
  0
VERTEX
  5
2E1
  8
__
  6
CONTINUOUS
 62
     7
 10
414.5162741497237
 20
8.185877299259175
 30
0.0
  0
VERTEX
  5
2E2
  8
__
  6
CONTINUOUS
 62
     7
 10
406.3712024407922
 20
-8.18587729925919
 30
0.0
 42
0.5568826053828003
 70
     2
 50
-28.50508355380734
  0
VERTEX
  5
2E3
  8
__
  6
CONTINUOUS
 62
     7
 10
447.7568054130086
 20
-75.0
 30
0.0
 42
0.5568826053828017
 70
     2
 50
4242129117508096
  0
VERTEX
  5
2E4
  8
__
  6
CONTINUOUS
 62
     7
 10
489.1424083852251
 20
-8.18587729925919
 30
0.0
  0
VERTEX
  5
2E5
  8
__
  6
CONTINUOUS
 62
     7
 10
480.9973366762936
 20
8.185877299259133
 30
0.0
 42
-0.5568826053828022
 70
     2
 50
28.50508355380751
  0
VERTEX
  5
2E6
  8
__
  6
CONTINUOUS
 62
     7
 10
522.38293964851
 20
75.0
 30
0.0
 42
-0.5568826053828009
 70
     2
 50
-4724125278320604
  0
VERTEX
  5
2E7
  8
__
  6
CONTINUOUS
 62
     7
 10
563.7685426207265
 20
8.185877299259133
 30
0.0
  0
VERTEX
  5
2E8
  8
__
  6
CONTINUOUS
 62
     7
 10
555.623470911795
 20
-8.185877299259133
 30
0.0
 42
0.5568826053828009
 70
     2
 50
-28.5050835538074
  0
VERTEX
  5
2E9
  8
__
  6
CONTINUOUS
 62
     7
 10
597.0090738840115
 20
-75.0
 30
0.0
 42
0.5568826053828022
 70
     2
 50
3749053927722690
  0
VERTEX
  5
2EA
  8
__
  6
CONTINUOUS
 62
     7
 10
638.394676856228
 20
-8.185877299259133
 30
0.0
  0
VERTEX
  5
2EB
  8
__
  6
CONTINUOUS
 62
     7
 10
630.2496051472965
 20
8.185877299259133
 30
0.0
 42
-0.5568826053828022
 70
     2
 50
28.50508355380751
  0
VERTEX
  5
2EC
  8
__
  6
CONTINUOUS
 62
     7
 10
671.635208119513
 20
75.0
 30
0.0
 42
-0.5568826053828009
 70
     2
 50
-4724125278320604
  0
VERTEX
  5
2ED
  8
__
  6
CONTINUOUS
 62
     7
 10
713.0208110917295
 20
8.185877299259133
 30
0.0
  0
VERTEX
  5
2EE
  8
__
  6
CONTINUOUS
 62
     7
 10
704.875739382798
 20
-8.185877299259133
 30
0.0
 42
0.5568826053828009
 70
     2
 50
-28.5050835538074
  0
VERTEX
  5
2EF
  8
__
  6
CONTINUOUS
 62
     7
 10
746.2613423550144
 20
-75.0
 30
0.0
 42
0.5568826053828022
 70
     2
 50
3749053927722690
  0
VERTEX
  5
2F0
  8
__
  6
CONTINUOUS
 62
     7
 10
787.6469453272309
 20
-8.185877299259133
 30
0.0
  0
VERTEX
  5
2F1
  8
__
  6
CONTINUOUS
 62
     7
 10
779.5018736182994
 20
8.185877299259133
 30
0.0
 42
-0.5568826053828022
 70
     2
 50
28.50508355380751
  0
VERTEX
  5
2F2
  8
__
  6
CONTINUOUS
 62
     7
 10
820.8874765905159
 20
75.0
 30
0.0
 42
-0.5568826053828009
 70
     2
 50
-4724125278320604
  0
VERTEX
  5
2F3
  8
__
  6
CONTINUOUS
 62
     7
 10
862.2730795627324
 20
8.185877299259133
 30
0.0
  0
VERTEX
  5
2F4
  8
__
  6
CONTINUOUS
 62
     7
 10
854.1280078538009
 20
-8.185877299259133
 30
0.0
 42
0.5568826053828009
 70
     2
 50
-28.5050835538074
  0
VERTEX
  5
2F5
  8
__
  6
CONTINUOUS
 62
     7
 10
895.5136108260174
 20
-75.0
 30
0.0
 42
0.5568826053828022
 70
     2
 50
3749053927722690
  0
VERTEX
  5
2F6
  8
__
  6
CONTINUOUS
 62
     7
 10
936.8992137982339
 20
-8.185877299259133
 30
0.0
  0
VERTEX
  5
2F7
  8
__
  6
CONTINUOUS
 62
     7
 10
928.7541420893024
 20
8.185877299259133
 30
0.0
 42
-0.5568826053828022
 70
     2
 50
28.50508355380751
  0
VERTEX
  5
2F8
  8
__
  6
CONTINUOUS
 62
     7
 10
970.1397450615189
 20
75.0
 30
0.0
 42
-0.5568826053828009
 70
     2
 50
-4724125278320604
  0
VERTEX
  5
2F9
  8
__
  6
CONTINUOUS
 62
     7
 10
1011.525348033735
 20
8.185877299259133
 30
0.0
  0
VERTEX
  5
2FA
  8
__
  6
CONTINUOUS
 62
     7
 10
1003.380276324804
 20
-8.185877299259133
 30
0.0
 42
0.556882605382802
 70
     2
 50
-28.50508355380746
  0
VERTEX
  5
2FB
  8
__
  6
CONTINUOUS
 62
     7
 10
1044.76587929702
 20
-75.0
 30
0.0
 42
0.5568826053828022
 70
     2
 50
3749053927722690
  0
VERTEX
  5
2FC
  8
__
  6
CONTINUOUS
 62
     7
 10
1086.151482269237
 20
-8.185877299259133
 30
0.0
  0
VERTEX
  5
2FD
  8
__
  6
CONTINUOUS
 62
     7
 10
1078.006410560305
 20
8.185877299259133
 30
0.0
 42
-0.5568826053828022
 70
     2
 50
28.50508355380751
  0
VERTEX
  5
2FE
  8
__
  6
CONTINUOUS
 62
     7
 10
1119.392013532522
 20
75.0
 30
0.0
 42
-0.556882605382802
 70
     2
 50
-3873202019255958
  0
VERTEX
  5
2FF
  8
__
  6
CONTINUOUS
 62
     7
 10
1160.777616504738
 20
8.185877299259133
 30
0.0
  0
VERTEX
  5
300
  8
__
  6
CONTINUOUS
 62
     7
 10
1152.632544795807
 20
-8.185877299259133
 30
0.0
 42
0.556882605382802
 70
     2
 50
-28.50508355380746
  0
VERTEX
  5
301
  8
__
  6
CONTINUOUS
 62
     7
 10
1194.018147768023
 20
-75.0
 30
0.0
 42
0.5568826053828022
 70
     2
 50
3749053927722690
  0
VERTEX
  5
302
  8
__
  6
CONTINUOUS
 62
     7
 10
1235.40375074024
 20
-8.185877299259133
 30
0.0
  0
VERTEX
  5
303
  8
__
  6
CONTINUOUS
 62
     7
 10
1227.258679031308
 20
8.185877299259133
 30
0.0
 42
-0.5568826053828022
 70
     2
 50
28.50508355380751
  0
VERTEX
  5
304
  8
__
  6
CONTINUOUS
 62
     7
 10
1268.644282003525
 20
75.0
 30
0.0
 42
-0.556882605382802
 70
     2
 50
-3873202019255958
  0
VERTEX
  5
305
  8
__
  6
CONTINUOUS
 62
     7
 10
1310.029884975741
 20
8.185877299259133
 30
0.0
  0
VERTEX
  5
306
  8
__
  6
CONTINUOUS
 62
     7
 10
1301.88481326681
 20
-8.185877299259133
 30
0.0
 42
0.556882605382802
 70
     2
 50
-28.50508355380746
  0
VERTEX
  5
307
  8
__
  6
CONTINUOUS
 62
     7
 10
1343.270416239026
 20
-75.0
 30
0.0
 42
0.5568826053828022
 70
     2
 50
3749053927722690
  0
VERTEX
  5
308
  8
__
  6
CONTINUOUS
 62
     7
 10
1384.656019211243
 20
-8.185877299259133
 30
0.0
  0
VERTEX
  5
309
  8
__
  6
CONTINUOUS
 62
     7
 10
1376.510947502311
 20
8.185877299259133
 30
0.0
 42
-0.5568826053828022
 70
     2
 50
28.50508355380751
  0
VERTEX
  5
30A
  8
__
  6
CONTINUOUS
 62
     7
 10
1417.896550474528
 20
75.0
 30
0.0
 42
-0.556882605382802
 70
     2
 50
-3873202019255958
  0
VERTEX
  5
30B
  8
__
  6
CONTINUOUS
 62
     7
 10
1459.282153446744
 20
8.185877299259133
 30
0.0
  0
VERTEX
  5
30C
  8
__
  6
CONTINUOUS
 62
     7
 10
1451.137081737813
 20
-8.185877299259133
 30
0.0
 42
0.556882605382802
 70
     2
 50
-28.50508355380746
  0
VERTEX
  5
30D
  8
__
  6
CONTINUOUS
 62
     7
 10
1492.522684710029
 20
-75.0
 30
0.0
 42
0.5568826053828022
 70
     2
 50
3749053927722690
  0
VERTEX
  5
30E
  8
__
  6
CONTINUOUS
 62
     7
 10
1533.908287682246
 20
-8.185877299259133
 30
0.0
  0
VERTEX
  5
30F
  8
__
  6
CONTINUOUS
 62
     7
 10
1525.763215973314
 20
8.185877299259133
 30
0.0
 42
-0.5568826053828022
 70
     2
 50
28.50508355380751
  0
VERTEX
  5
310
  8
__
  6
CONTINUOUS
 62
     7
 10
1567.148818945531
 20
75.0
 30
0.0
 42
-0.556882605382802
 70
     2
 50
-3873202019255958
  0
VERTEX
  5
311
  8
__
  6
CONTINUOUS
 62
     7
 10
1608.534421917747
 20
8.185877299259133
 30
0.0
  0
VERTEX
  5
312
  8
__
  6
CONTINUOUS
 62
     7
 10
1600.389350208816
 20
-8.185877299259133
 30
0.0
 42
0.556882605382802
 70
     2
 50
-28.50508355380746
  0
VERTEX
  5
313
  8
__
  6
CONTINUOUS
 62
     7
 10
1641.774953181032
 20
-75.0
 30
0.0
 42
0.5568826053828022
 70
     2
 50
3749053927722690
  0
VERTEX
  5
314
  8
__
  6
CONTINUOUS
 62
     7
 10
1683.160556153249
 20
-8.185877299259133
 30
0.0
  0
VERTEX
  5
315
  8
__
  6
CONTINUOUS
 62
     7
 10
1675.015484444317
 20
8.185877299259133
 30
0.0
 42
-0.5568826053828022
 70
     2
 50
28.50508355380751
  0
VERTEX
  5
316
  8
__
  6
CONTINUOUS
 62
     7
 10
1716.401087416534
 20
75.0
 30
0.0
 42
-0.556882605382802
 70
     2
 50
-3873202019255958
  0
VERTEX
  5
317
  8
__
  6
CONTINUOUS
 62
     7
 10
1757.78669038875
 20
8.185877299259133
 30
0.0
  0
VERTEX
  5
318
  8
__
  6
CONTINUOUS
 62
     7
 10
1749.641618679819
 20
-8.185877299259133
 30
0.0
 42
0.556882605382802
 70
     2
 50
-28.50508355380746
  0
VERTEX
  5
319
  8
__
  6
CONTINUOUS
 62
     7
 10
1791.027221652035
 20
-75.0
 30
0.0
 42
0.5568826053828022
 70
     2
 50
3749053927722690
  0
VERTEX
  5
31A
  8
__
  6
CONTINUOUS
 62
     7
 10
1832.412824624251
 20
-8.185877299259133
 30
0.0
  0
VERTEX
  5
31B
  8
__
  6
CONTINUOUS
 62
     7
 10
1824.26775291532
 20
8.185877299259133
 30
0.0
 42
-0.5568826053828022
 70
     2
 50
28.50508355380751
  0
VERTEX
  5
31C
  8
__
  6
CONTINUOUS
 62
     7
 10
1865.653355887536
 20
75.0
 30
0.0
 42
-0.556882605382802
 70
     2
 50
-3873202019255958
  0
VERTEX
  5
31D
  8
__
  6
CONTINUOUS
 62
     7
 10
1907.038958859753
 20
8.185877299259133
 30
0.0
  0
VERTEX
  5
31E
  8
__
  6
CONTINUOUS
 62
     7
 10
1898.893887150821
 20
-8.185877299259133
 30
0.0
 42
0.556882605382802
 70
     2
 50
-28.50508355380746
  0
VERTEX
  5
31F
  8
__
  6
CONTINUOUS
 62
     7
 10
1940.279490123038
 20
-75.0
 30
0.0
  0
SEQEND
  5
320
  8
__
  6
CONTINUOUS
 62
     7
  0
ENDBLK
  5
85
  8
0
  0
BLOCK
  8
0
  2
BATT_INSULATION-8
 70
     0
 10
0.0
 20
0.0
 30
0.0
  3
BATT_INSULATION-8
  1

  0
POLYLINE
  5
321
  8
__
  6
CONTINUOUS
 62
     7
 66
     1
 10
0.0
 20
0.0
 30
0.0
 70
   128
  0
VERTEX
  5
322
  8
__
  6
CONTINUOUS
 62
     7
 10
0.0
 20
-75.0
 30
0.0
 42
0.5568826053827942
 70
     2
 50
2.011625945540938E+16
  0
VERTEX
  5
323
  8
__
  6
CONTINUOUS
 62
     7
 10
41.38560297221644
 20
-8.185877299259161
 30
0.0
  0
VERTEX
  5
324
  8
__
  6
CONTINUOUS
 62
     7
 10
33.240531263285
 20
8.185877299259161
 30
0.0
 42
-0.5568826053827943
 70
     2
 50
28.50508355380668
  0
VERTEX
  5
325
  8
__
  6
CONTINUOUS
 62
     7
 10
74.62613423550144
 20
75.0
 30
0.0
 42
-0.5568826053827937
 70
     2
 50
-3.897154736081378E+16
  0
VERTEX
  5
326
  8
__
  6
CONTINUOUS
 62
     7
 10
116.0117372077179
 20
8.185877299259161
 30
0.0
  0
VERTEX
  5
327
  8
__
  6
CONTINUOUS
 62
     7
 10
107.8666654987864
 20
-8.185877299259161
 30
0.0
 42
0.5568826053827942
 70
     2
 50
-28.50508355380664
  0
VERTEX
  5
328
  8
__
  6
CONTINUOUS
 62
     7
 10
149.2522684710029
 20
-75.0
 30
0.0
 42
0.556882605382796
 70
     2
 50
1.039328778465266E+16
  0
VERTEX
  5
329
  8
__
  6
CONTINUOUS
 62
     7
 10
190.6378714432193
 20
-8.185877299259161
 30
0.0
  0
VERTEX
  5
32A
  8
__
  6
CONTINUOUS
 62
     7
 10
182.4927997342879
 20
8.185877299259161
 30
0.0
 42
-0.5568826053827951
 70
     2
 50
28.50508355380675
  0
VERTEX
  5
32B
  8
__
  6
CONTINUOUS
 62
     7
 10
223.8784027065043
 20
75.0
 30
0.0
 42
-0.5568826053828009
 70
     2
 50
-4724125278320604
  0
VERTEX
  5
32C
  8
__
  6
CONTINUOUS
 62
     7
 10
265.2640056787208
 20
8.185877299259161
 30
0.0
  0
VERTEX
  5
32D
  8
__
  6
CONTINUOUS
 62
     7
 10
257.1189339697893
 20
-8.185877299259161
 30
0.0
 42
0.5568826053828014
 70
     2
 50
-28.50508355380743
  0
VERTEX
  5
32E
  8
__
  6
CONTINUOUS
 62
     7
 10
298.5045369420058
 20
-75.0
 30
0.0
 42
0.5568826053828022
 70
     2
 50
3749053927722690
  0
VERTEX
  5
32F
  8
__
  6
CONTINUOUS
 62
     7
 10
339.8901399142222
 20
-8.185877299259133
 30
0.0
  0
VERTEX
  5
330
  8
__
  6
CONTINUOUS
 62
     7
 10
331.7450682052907
 20
8.185877299259133
 30
0.0
 42
-0.5568826053828022
 70
     2
 50
28.50508355380751
  0
VERTEX
  5
331
  8
__
  6
CONTINUOUS
 62
     7
 10
373.1306711775072
 20
75.0
 30
0.0
 42
-0.556882605382802
 70
     2
 50
-3873202019255958
  0
VERTEX
  5
332
  8
__
  6
CONTINUOUS
 62
     7
 10
414.5162741497237
 20
8.185877299259175
 30
0.0
  0
VERTEX
  5
333
  8
__
  6
CONTINUOUS
 62
     7
 10
406.3712024407922
 20
-8.18587729925919
 30
0.0
 42
0.5568826053828003
 70
     2
 50
-28.50508355380734
  0
VERTEX
  5
334
  8
__
  6
CONTINUOUS
 62
     7
 10
447.7568054130086
 20
-75.0
 30
0.0
 42
0.5568826053828017
 70
     2
 50
4242129117508096
  0
VERTEX
  5
335
  8
__
  6
CONTINUOUS
 62
     7
 10
489.1424083852251
 20
-8.18587729925919
 30
0.0
  0
VERTEX
  5
336
  8
__
  6
CONTINUOUS
 62
     7
 10
480.9973366762936
 20
8.185877299259133
 30
0.0
 42
-0.5568826053828022
 70
     2
 50
28.50508355380751
  0
VERTEX
  5
337
  8
__
  6
CONTINUOUS
 62
     7
 10
522.38293964851
 20
75.0
 30
0.0
 42
-0.5568826053828009
 70
     2
 50
-4724125278320604
  0
VERTEX
  5
338
  8
__
  6
CONTINUOUS
 62
     7
 10
563.7685426207265
 20
8.185877299259133
 30
0.0
  0
VERTEX
  5
339
  8
__
  6
CONTINUOUS
 62
     7
 10
555.623470911795
 20
-8.185877299259133
 30
0.0
 42
0.5568826053828009
 70
     2
 50
-28.5050835538074
  0
VERTEX
  5
33A
  8
__
  6
CONTINUOUS
 62
     7
 10
597.0090738840115
 20
-75.0
 30
0.0
 42
0.5568826053828022
 70
     2
 50
3749053927722690
  0
VERTEX
  5
33B
  8
__
  6
CONTINUOUS
 62
     7
 10
638.394676856228
 20
-8.185877299259133
 30
0.0
  0
VERTEX
  5
33C
  8
__
  6
CONTINUOUS
 62
     7
 10
630.2496051472965
 20
8.185877299259133
 30
0.0
 42
-0.5568826053828022
 70
     2
 50
28.50508355380751
  0
VERTEX
  5
33D
  8
__
  6
CONTINUOUS
 62
     7
 10
671.635208119513
 20
75.0
 30
0.0
 42
-0.5568826053828009
 70
     2
 50
-4724125278320604
  0
VERTEX
  5
33E
  8
__
  6
CONTINUOUS
 62
     7
 10
713.0208110917295
 20
8.185877299259133
 30
0.0
  0
VERTEX
  5
33F
  8
__
  6
CONTINUOUS
 62
     7
 10
704.875739382798
 20
-8.185877299259133
 30
0.0
 42
0.5568826053828009
 70
     2
 50
-28.5050835538074
  0
VERTEX
  5
340
  8
__
  6
CONTINUOUS
 62
     7
 10
746.2613423550144
 20
-75.0
 30
0.0
 42
0.5568826053828022
 70
     2
 50
3749053927722690
  0
VERTEX
  5
341
  8
__
  6
CONTINUOUS
 62
     7
 10
787.6469453272309
 20
-8.185877299259133
 30
0.0
  0
VERTEX
  5
342
  8
__
  6
CONTINUOUS
 62
     7
 10
779.5018736182994
 20
8.185877299259133
 30
0.0
 42
-0.5568826053828022
 70
     2
 50
28.50508355380751
  0
VERTEX
  5
343
  8
__
  6
CONTINUOUS
 62
     7
 10
820.8874765905159
 20
75.0
 30
0.0
 42
-0.5568826053828009
 70
     2
 50
-4724125278320604
  0
VERTEX
  5
344
  8
__
  6
CONTINUOUS
 62
     7
 10
862.2730795627324
 20
8.185877299259133
 30
0.0
  0
VERTEX
  5
345
  8
__
  6
CONTINUOUS
 62
     7
 10
854.1280078538009
 20
-8.185877299259133
 30
0.0
 42
0.5568826053828009
 70
     2
 50
-28.5050835538074
  0
VERTEX
  5
346
  8
__
  6
CONTINUOUS
 62
     7
 10
895.5136108260174
 20
-75.0
 30
0.0
 42
0.5568826053828022
 70
     2
 50
3749053927722690
  0
VERTEX
  5
347
  8
__
  6
CONTINUOUS
 62
     7
 10
936.8992137982339
 20
-8.185877299259133
 30
0.0
  0
VERTEX
  5
348
  8
__
  6
CONTINUOUS
 62
     7
 10
928.7541420893024
 20
8.185877299259133
 30
0.0
 42
-0.5568826053828022
 70
     2
 50
28.50508355380751
  0
VERTEX
  5
349
  8
__
  6
CONTINUOUS
 62
     7
 10
970.1397450615189
 20
75.0
 30
0.0
 42
-0.5568826053828009
 70
     2
 50
-4724125278320604
  0
VERTEX
  5
34A
  8
__
  6
CONTINUOUS
 62
     7
 10
1011.525348033735
 20
8.185877299259133
 30
0.0
  0
VERTEX
  5
34B
  8
__
  6
CONTINUOUS
 62
     7
 10
1003.380276324804
 20
-8.185877299259133
 30
0.0
 42
0.556882605382802
 70
     2
 50
-28.50508355380746
  0
VERTEX
  5
34C
  8
__
  6
CONTINUOUS
 62
     7
 10
1044.76587929702
 20
-75.0
 30
0.0
 42
0.5568826053828022
 70
     2
 50
3749053927722690
  0
VERTEX
  5
34D
  8
__
  6
CONTINUOUS
 62
     7
 10
1086.151482269237
 20
-8.185877299259133
 30
0.0
  0
VERTEX
  5
34E
  8
__
  6
CONTINUOUS
 62
     7
 10
1078.006410560305
 20
8.185877299259133
 30
0.0
 42
-0.5568826053828022
 70
     2
 50
28.50508355380751
  0
VERTEX
  5
34F
  8
__
  6
CONTINUOUS
 62
     7
 10
1119.392013532522
 20
75.0
 30
0.0
 42
-0.556882605382802
 70
     2
 50
-3873202019255958
  0
VERTEX
  5
350
  8
__
  6
CONTINUOUS
 62
     7
 10
1160.777616504738
 20
8.185877299259133
 30
0.0
  0
VERTEX
  5
351
  8
__
  6
CONTINUOUS
 62
     7
 10
1152.632544795807
 20
-8.185877299259133
 30
0.0
 42
0.556882605382802
 70
     2
 50
-28.50508355380746
  0
VERTEX
  5
352
  8
__
  6
CONTINUOUS
 62
     7
 10
1194.018147768023
 20
-75.0
 30
0.0
 42
0.5568826053828022
 70
     2
 50
3749053927722690
  0
VERTEX
  5
353
  8
__
  6
CONTINUOUS
 62
     7
 10
1235.40375074024
 20
-8.185877299259133
 30
0.0
  0
VERTEX
  5
354
  8
__
  6
CONTINUOUS
 62
     7
 10
1227.258679031308
 20
8.185877299259133
 30
0.0
 42
-0.5568826053828022
 70
     2
 50
28.50508355380751
  0
VERTEX
  5
355
  8
__
  6
CONTINUOUS
 62
     7
 10
1268.644282003525
 20
75.0
 30
0.0
 42
-0.556882605382802
 70
     2
 50
-3873202019255958
  0
VERTEX
  5
356
  8
__
  6
CONTINUOUS
 62
     7
 10
1310.029884975741
 20
8.185877299259133
 30
0.0
  0
VERTEX
  5
357
  8
__
  6
CONTINUOUS
 62
     7
 10
1301.88481326681
 20
-8.185877299259133
 30
0.0
 42
0.556882605382802
 70
     2
 50
-28.50508355380746
  0
VERTEX
  5
358
  8
__
  6
CONTINUOUS
 62
     7
 10
1343.270416239026
 20
-75.0
 30
0.0
 42
0.5568826053828022
 70
     2
 50
3749053927722690
  0
VERTEX
  5
359
  8
__
  6
CONTINUOUS
 62
     7
 10
1384.656019211243
 20
-8.185877299259133
 30
0.0
  0
VERTEX
  5
35A
  8
__
  6
CONTINUOUS
 62
     7
 10
1376.510947502311
 20
8.185877299259133
 30
0.0
 42
-0.5568826053828022
 70
     2
 50
28.50508355380751
  0
VERTEX
  5
35B
  8
__
  6
CONTINUOUS
 62
     7
 10
1417.896550474528
 20
75.0
 30
0.0
 42
-0.556882605382802
 70
     2
 50
-3873202019255958
  0
VERTEX
  5
35C
  8
__
  6
CONTINUOUS
 62
     7
 10
1459.282153446744
 20
8.185877299259133
 30
0.0
  0
VERTEX
  5
35D
  8
__
  6
CONTINUOUS
 62
     7
 10
1451.137081737813
 20
-8.185877299259133
 30
0.0
 42
0.556882605382802
 70
     2
 50
-28.50508355380746
  0
VERTEX
  5
35E
  8
__
  6
CONTINUOUS
 62
     7
 10
1492.522684710029
 20
-75.0
 30
0.0
 42
0.5568826053828022
 70
     2
 50
3749053927722690
  0
VERTEX
  5
35F
  8
__
  6
CONTINUOUS
 62
     7
 10
1533.908287682246
 20
-8.185877299259133
 30
0.0
  0
VERTEX
  5
360
  8
__
  6
CONTINUOUS
 62
     7
 10
1525.763215973314
 20
8.185877299259133
 30
0.0
 42
-0.5568826053828022
 70
     2
 50
28.50508355380751
  0
VERTEX
  5
361
  8
__
  6
CONTINUOUS
 62
     7
 10
1567.148818945531
 20
75.0
 30
0.0
 42
-0.556882605382802
 70
     2
 50
-3873202019255958
  0
VERTEX
  5
362
  8
__
  6
CONTINUOUS
 62
     7
 10
1608.534421917747
 20
8.185877299259133
 30
0.0
  0
VERTEX
  5
363
  8
__
  6
CONTINUOUS
 62
     7
 10
1600.389350208816
 20
-8.185877299259133
 30
0.0
 42
0.556882605382802
 70
     2
 50
-28.50508355380746
  0
VERTEX
  5
364
  8
__
  6
CONTINUOUS
 62
     7
 10
1641.774953181032
 20
-75.0
 30
0.0
 42
0.5568826053828022
 70
     2
 50
3749053927722690
  0
VERTEX
  5
365
  8
__
  6
CONTINUOUS
 62
     7
 10
1683.160556153249
 20
-8.185877299259133
 30
0.0
  0
VERTEX
  5
366
  8
__
  6
CONTINUOUS
 62
     7
 10
1675.015484444317
 20
8.185877299259133
 30
0.0
 42
-0.5568826053828022
 70
     2
 50
28.50508355380751
  0
VERTEX
  5
367
  8
__
  6
CONTINUOUS
 62
     7
 10
1716.401087416534
 20
75.0
 30
0.0
 42
-0.556882605382802
 70
     2
 50
-3873202019255958
  0
VERTEX
  5
368
  8
__
  6
CONTINUOUS
 62
     7
 10
1757.78669038875
 20
8.185877299259133
 30
0.0
  0
VERTEX
  5
369
  8
__
  6
CONTINUOUS
 62
     7
 10
1749.641618679819
 20
-8.185877299259133
 30
0.0
 42
0.556882605382802
 70
     2
 50
-28.50508355380746
  0
VERTEX
  5
36A
  8
__
  6
CONTINUOUS
 62
     7
 10
1791.027221652035
 20
-75.0
 30
0.0
 42
0.5568826053828022
 70
     2
 50
3749053927722690
  0
VERTEX
  5
36B
  8
__
  6
CONTINUOUS
 62
     7
 10
1832.412824624251
 20
-8.185877299259133
 30
0.0
  0
VERTEX
  5
36C
  8
__
  6
CONTINUOUS
 62
     7
 10
1824.26775291532
 20
8.185877299259133
 30
0.0
 42
-0.5568826053828022
 70
     2
 50
28.50508355380751
  0
VERTEX
  5
36D
  8
__
  6
CONTINUOUS
 62
     7
 10
1865.653355887536
 20
75.0
 30
0.0
 42
-0.556882605382802
 70
     2
 50
-3873202019255958
  0
VERTEX
  5
36E
  8
__
  6
CONTINUOUS
 62
     7
 10
1907.038958859753
 20
8.185877299259133
 30
0.0
  0
VERTEX
  5
36F
  8
__
  6
CONTINUOUS
 62
     7
 10
1898.893887150821
 20
-8.185877299259133
 30
0.0
 42
0.556882605382802
 70
     2
 50
-28.50508355380746
  0
VERTEX
  5
370
  8
__
  6
CONTINUOUS
 62
     7
 10
1940.279490123038
 20
-75.0
 30
0.0
  0
SEQEND
  5
371
  8
__
  6
CONTINUOUS
 62
     7
  0
ENDBLK
  5
88
  8
0
  0
ENDSEC
  0
SECTION
  2
ENTITIES
  0
LINE
  5
372
  8
__
  6
CONTINUOUS
 62
     7
 10
-8995.0
 20
-446.2699893907411
 30
0.0
 11
8995.0
 21
-446.2699893907411
 31
0.0
  0
LINE
  5
373
  8
__
  6
CONTINUOUS
 62
     7
 10
-9245.010711583542
 20
14123.72721972666
 30
0.0
 11
-10145.00745595607
 21
14123.72721972666
 31
0.0
  0
LINE
  5
374
  8
__
  6
CONTINUOUS
 62
     7
 10
-10145.00745595607
 20
14123.72721972666
 30
0.0
 11
-10145.00745595607
 21
15023.72272690013
 31
0.0
  0
LINE
  5
375
  8
__
  6
CONTINUOUS
 62
     7
 10
-10145.00745595607
 20
15023.72272690013
 30
0.0
 11
-9245.010711583542
 21
15023.72272690013
 31
0.0
  0
LINE
  5
376
  8
__
  6
CONTINUOUS
 62
     7
 10
-9245.010711583542
 20
15023.72272690013
 30
0.0
 11
-9245.010711583542
 21
14123.72721972666
 31
0.0
  0
LINE
  5
377
  8
__
  6
CONTINUOUS
 62
     7
 10
10155.01038935501
 20
14123.72721972666
 30
0.0
 11
9255.012407783419
 21
14123.72721972666
 31
0.0
  0
LINE
  5
378
  8
__
  6
CONTINUOUS
 62
     7
 10
9255.012407783419
 20
14123.72721972666
 30
0.0
 11
9255.012407783419
 21
15023.72272690013
 31
0.0
  0
LINE
  5
379
  8
__
  6
CONTINUOUS
 62
     7
 10
9255.012407783419
 20
15023.72272690013
 30
0.0
 11
10155.01038935501
 21
15023.72272690013
 31
0.0
  0
LINE
  5
37A
  8
__
  6
CONTINUOUS
 62
     7
 10
10155.01038935501
 20
15023.72272690013
 30
0.0
 11
10155.01038935501
 21
14123.72721972666
 31
0.0
  0
LINE
  5
37B
  8
__
  6
CONTINUOUS
 62
     7
 10
9255.012407783419
 20
14341.30104636331
 30
0.0
 11
-9245.010711583542
 21
14341.30104636331
 31
0.0
  0
LINE
  5
37C
  8
__
  6
CONTINUOUS
 62
     7
 10
-9245.010711583542
 20
14341.30104636331
 30
0.0
 11
-9245.010711583542
 21
14141.31524155918
 31
0.0
  0
LINE
  5
37D
  8
__
  6
CONTINUOUS
 62
     7
 10
-9245.010711583542
 20
14141.31524155918
 30
0.0
 11
9255.012407783419
 21
14141.31524155918
 31
0.0
  0
LINE
  5
37E
  8
__
  6
CONTINUOUS
 62
     7
 10
9255.012407783419
 20
14141.31524155918
 30
0.0
 11
9255.012407783419
 21
14341.30104636331
 31
0.0
  0
LINE
  5
37F
  8
__
  6
CONTINUOUS
 62
     7
 10
-8995.0
 20
23.74440778268036
 30
0.0
 11
-8995.0
 21
-1346.266733763274
 31
0.0
  0
LINE
  5
380
  8
__
  6
CONTINUOUS
 62
     7
 10
-8995.0
 20
-1346.266733763274
 30
0.0
 11
-9934.994152773172
 21
-3770.718199199502
 31
0.0
  0
LINE
  5
381
  8
__
  6
CONTINUOUS
 62
     7
 10
-9934.994152773172
 20
-3770.718199199502
 30
0.0
 11
-9934.994152773172
 21
-4476.273646353889
 31
0.0
  0
LINE
  5
382
  8
__
  6
CONTINUOUS
 62
     7
 10
-9934.994152773172
 20
-4476.273646353889
 30
0.0
 11
-10145.00745595607
 21
-4476.273646353889
 31
0.0
  0
LINE
  5
383
  8
__
  6
CONTINUOUS
 62
     7
 10
-10145.00745595607
 20
-4476.273646353889
 30
0.0
 11
-10145.00745595607
 21
-426.253964403586
 31
0.0
  0
LINE
  5
384
  8
__
  6
CONTINUOUS
 62
     7
 10
-10145.00745595607
 20
-426.253964403586
 30
0.0
 11
-9460.001266583567
 21
-426.253964403586
 31
0.0
  0
LINE
  5
385
  8
__
  6
CONTINUOUS
 62
     7
 10
-9460.001266583567
 20
-426.253964403586
 30
0.0
 11
-9460.001266583567
 21
23.74440778268036
 31
0.0
  0
LINE
  5
386
  8
__
  6
CONTINUOUS
 62
     7
 10
-9460.001266583567
 20
23.74440778268036
 30
0.0
 11
-8995.0
 21
23.74440778268036
 31
0.0
  0
LINE
  5
387
  8
__
  6
CONTINUOUS
 62
     7
 10
8995.0
 20
23.48881556536071
 30
0.0
 11
8995.0
 21
-1346.522325980593
 31
0.0
  0
LINE
  5
388
  8
__
  6
CONTINUOUS
 62
     7
 10
8995.0
 20
-1346.522325980593
 30
0.0
 11
9935.028794346843
 21
-3770.973791416822
 31
0.0
  0
LINE
  5
389
  8
__
  6
CONTINUOUS
 62
     7
 10
9935.028794346843
 20
-3770.973791416822
 30
0.0
 11
9935.028794346843
 21
-4476.529238571209
 31
0.0
  0
LINE
  5
38A
  8
__
  6
CONTINUOUS
 62
     7
 10
9935.028794346843
 20
-4476.529238571209
 30
0.0
 11
10145.04086033069
 21
-4476.529238571209
 31
0.0
  0
LINE
  5
38B
  8
__
  6
CONTINUOUS
 62
     7
 10
10145.04086033069
 20
-4476.529238571209
 30
0.0
 11
10145.04086033069
 21
-426.5095566209056
 31
0.0
  0
LINE
  5
38C
  8
__
  6
CONTINUOUS
 62
     7
 10
10145.04086033069
 20
-426.5095566209056
 30
0.0
 11
9460.018587370403
 21
-426.5095566209056
 31
0.0
  0
LINE
  5
38D
  8
__
  6
CONTINUOUS
 62
     7
 10
9460.018587370403
 20
-426.5095566209056
 30
0.0
 11
9460.018587370403
 21
23.48881556536071
 31
0.0
  0
LINE
  5
38E
  8
__
  6
CONTINUOUS
 62
     7
 10
9460.018587370403
 20
23.48881556536071
 30
0.0
 11
8995.0
 21
23.48881556536071
 31
0.0
  0
LINE
  5
38F
  8
__
  6
CONTINUOUS
 62
     7
 10
-14299.63695789943
 20
-826.2639271827065
 30
0.0
 11
-14299.63695789943
 21
-1126.263048173394
 31
0.0
  0
LINE
  5
390
  8
__
  6
CONTINUOUS
 62
     7
 10
-14299.63695789943
 20
-1126.263048173394
 30
0.0
 11
-12379.49597547046
 21
-1126.263048173394
 31
0.0
  0
LINE
  5
391
  8
__
  6
CONTINUOUS
 62
     7
 10
-12379.49597547046
 20
-1126.263048173394
 30
0.0
 11
-12379.49597547046
 21
-4476.273646353889
 31
0.0
  0
LINE
  5
392
  8
__
  6
CONTINUOUS
 62
     7
 10
-12379.49597547046
 20
-4476.273646353889
 30
0.0
 11
-12079.49685447977
 21
-4476.273646353889
 31
0.0
  0
LINE
  5
393
  8
__
  6
CONTINUOUS
 62
     7
 10
-12079.49685447977
 20
-4476.273646353889
 30
0.0
 11
-12079.49685447977
 21
-826.2639271827065
 31
0.0
  0
LINE
  5
394
  8
__
  6
CONTINUOUS
 62
     7
 10
-12079.49685447977
 20
-826.2639271827065
 30
0.0
 11
-14299.63695789943
 21
-826.2639271827065
 31
0.0
  0
LINE
  5
395
  8
__
  6
CONTINUOUS
 62
     7
 10
-14299.63695789943
 20
-826.2639271827065
 30
0.0
 11
-14299.63695789943
 21
-1126.263048173394
 31
0.0
  0
LINE
  5
396
  8
__
  6
CONTINUOUS
 62
     7
 10
-14299.63695789943
 20
-1126.263048173394
 30
0.0
 11
-12379.49597547046
 21
-1126.263048173394
 31
0.0
  0
LINE
  5
397
  8
__
  6
CONTINUOUS
 62
     7
 10
-12379.49597547046
 20
-1126.263048173394
 30
0.0
 11
-12379.49597547046
 21
-4476.273646353889
 31
0.0
  0
LINE
  5
398
  8
__
  6
CONTINUOUS
 62
     7
 10
-12379.49597547046
 20
-4476.273646353889
 30
0.0
 11
-12079.49685447977
 21
-4476.273646353889
 31
0.0
  0
LINE
  5
399
  8
__
  6
CONTINUOUS
 62
     7
 10
-12079.49685447977
 20
-4476.273646353889
 30
0.0
 11
-12079.49685447977
 21
-826.2639271827065
 31
0.0
  0
LINE
  5
39A
  8
__
  6
CONTINUOUS
 62
     7
 10
-12079.49685447977
 20
-826.2639271827065
 30
0.0
 11
-14299.63695789943
 21
-826.2639271827065
 31
0.0
  0
LINE
  5
39B
  8
__
  6
CONTINUOUS
 62
     7
 10
-15314.99261699535
 20
14699.81658987957
 30
0.0
 11
-15314.99261699535
 21
15028.13457874698
 31
0.0
  0
LINE
  5
39C
  8
__
  6
CONTINUOUS
 62
     7
 10
-15314.99261699535
 20
15028.13457874698
 30
0.0
 11
-16214.98967066765
 21
15028.13457874698
 31
0.0
  0
LINE
  5
39D
  8
__
  6
CONTINUOUS
 62
     7
 10
-16214.98967066765
 20
15028.13457874698
 30
0.0
 11
-16214.98967066765
 21
-4467.14404519269
 31
0.0
  0
LINE
  5
39E
  8
__
  6
CONTINUOUS
 62
     7
 10
-16214.98967066765
 20
-4467.14404519269
 30
0.0
 11
-15915.0078704638
 21
-4467.14404519269
 31
0.0
  0
LINE
  5
39F
  8
__
  6
CONTINUOUS
 62
     7
 10
-15915.0078704638
 20
-4467.14404519269
 30
0.0
 11
-15915.0078704638
 21
-1326.250708776119
 31
0.0
  0
LINE
  5
3A0
  8
__
  6
CONTINUOUS
 62
     7
 10
-15915.0078704638
 20
-1326.250708776119
 30
0.0
 11
-15314.99261699535
 21
-1326.250708776119
 31
0.0
  0
LINE
  5
3A1
  8
__
  6
CONTINUOUS
 62
     7
 10
-15314.99261699535
 20
-1326.250708776119
 30
0.0
 11
-15314.99261699535
 21
-426.253964403586
 31
0.0
  0
LINE
  5
3A2
  8
__
  6
CONTINUOUS
 62
     7
 10
-15314.99261699535
 20
-426.253964403586
 30
0.0
 11
-15914.99054967696
 21
-426.253964403586
 31
0.0
  0
LINE
  5
3A3
  8
__
  6
CONTINUOUS
 62
     7
 10
-15914.99054967696
 20
-426.253964403586
 30
0.0
 11
-15914.99054967696
 21
1723.761077713454
 31
0.0
  0
LINE
  5
3A4
  8
__
  6
CONTINUOUS
 62
     7
 10
-15914.99054967696
 20
1723.761077713454
 30
0.0
 11
-15314.99261699535
 21
1723.761077713454
 31
0.0
  0
LINE
  5
3A5
  8
__
  6
CONTINUOUS
 62
     7
 10
-15314.99261699535
 20
1723.761077713454
 30
0.0
 11
-15314.99261699535
 21
2623.757822085987
 31
0.0
  0
LINE
  5
3A6
  8
__
  6
CONTINUOUS
 62
     7
 10
-15314.99261699535
 20
2623.757822085987
 30
0.0
 11
-15914.99054967696
 21
2623.757822085987
 31
0.0
  0
LINE
  5
3A7
  8
__
  6
CONTINUOUS
 62
     7
 10
-15914.99054967696
 20
2623.757822085987
 30
0.0
 11
-15914.99054967696
 21
8628.111266177613
 31
0.0
  0
LINE
  5
3A8
  8
__
  6
CONTINUOUS
 62
     7
 10
-15914.99054967696
 20
8628.111266177613
 30
0.0
 11
-15314.99261699535
 21
8628.111266177613
 31
0.0
  0
LINE
  5
3A9
  8
__
  6
CONTINUOUS
 62
     7
 10
-15314.99261699535
 20
8628.111266177613
 30
0.0
 11
-15314.99261699535
 21
9528.108010550146
 31
0.0
  0
LINE
  5
3AA
  8
__
  6
CONTINUOUS
 62
     7
 10
-15314.99261699535
 20
9528.108010550146
 30
0.0
 11
-15914.99054967696
 21
9528.108010550146
 31
0.0
  0
LINE
  5
3AB
  8
__
  6
CONTINUOUS
 62
     7
 10
-15914.99054967696
 20
9528.108010550146
 30
0.0
 11
-15914.99054967696
 21
14128.13659717538
 31
0.0
  0
LINE
  5
3AC
  8
__
  6
CONTINUOUS
 62
     7
 10
-15914.99054967696
 20
14128.13659717538
 30
0.0
 11
-15314.99261699535
 21
14128.13659717538
 31
0.0
  0
LINE
  5
3AD
  8
__
  6
CONTINUOUS
 62
     7
 10
-15314.99261699535
 20
14128.13659717538
 30
0.0
 11
-15314.99261699535
 21
14394.06263746275
 31
0.0
  0
LINE
  5
3AE
  8
__
  6
CONTINUOUS
 62
     7
 10
-15314.99261699535
 20
14394.06263746275
 30
0.0
 11
-12254.9904480988
 21
14394.06263746275
 31
0.0
  0
LINE
  5
3AF
  8
__
  6
CONTINUOUS
 62
     7
 10
-12254.9904480988
 20
14394.06263746275
 30
0.0
 11
-12254.9904480988
 21
14699.81658987957
 31
0.0
  0
LINE
  5
3B0
  8
__
  6
CONTINUOUS
 62
     7
 10
-12254.9904480988
 20
14699.81658987957
 30
0.0
 11
-15314.99261699535
 21
14699.81658987957
 31
0.0
  0
LINE
  5
3B1
  8
__
  6
CONTINUOUS
 62
     7
 10
-15314.99261699535
 20
14699.81658987957
 30
0.0
 11
-15314.99261699535
 21
15028.13457874698
 31
0.0
  0
LINE
  5
3B2
  8
__
  6
CONTINUOUS
 62
     7
 10
-15314.99261699535
 20
15028.13457874698
 30
0.0
 11
-16214.98967066765
 21
15028.13457874698
 31
0.0
  0
LINE
  5
3B3
  8
__
  6
CONTINUOUS
 62
     7
 10
-16214.98967066765
 20
15028.13457874698
 30
0.0
 11
-16214.98967066765
 21
-4467.14404519269
 31
0.0
  0
LINE
  5
3B4
  8
__
  6
CONTINUOUS
 62
     7
 10
-16214.98967066765
 20
-4467.14404519269
 30
0.0
 11
-15915.0078704638
 21
-4467.14404519269
 31
0.0
  0
LINE
  5
3B5
  8
__
  6
CONTINUOUS
 62
     7
 10
-15915.0078704638
 20
-4467.14404519269
 30
0.0
 11
-15915.0078704638
 21
-1326.250708776119
 31
0.0
  0
LINE
  5
3B6
  8
__
  6
CONTINUOUS
 62
     7
 10
-15915.0078704638
 20
-1326.250708776119
 30
0.0
 11
-15314.99261699535
 21
-1326.250708776119
 31
0.0
  0
LINE
  5
3B7
  8
__
  6
CONTINUOUS
 62
     7
 10
-15314.99261699535
 20
-1326.250708776119
 30
0.0
 11
-15314.99261699535
 21
-426.253964403586
 31
0.0
  0
LINE
  5
3B8
  8
__
  6
CONTINUOUS
 62
     7
 10
-15314.99261699535
 20
-426.253964403586
 30
0.0
 11
-15914.99054967696
 21
-426.253964403586
 31
0.0
  0
LINE
  5
3B9
  8
__
  6
CONTINUOUS
 62
     7
 10
-15914.99054967696
 20
-426.253964403586
 30
0.0
 11
-15914.99054967696
 21
1723.761077713454
 31
0.0
  0
LINE
  5
3BA
  8
__
  6
CONTINUOUS
 62
     7
 10
-15914.99054967696
 20
1723.761077713454
 30
0.0
 11
-15314.99261699535
 21
1723.761077713454
 31
0.0
  0
LINE
  5
3BB
  8
__
  6
CONTINUOUS
 62
     7
 10
-15314.99261699535
 20
1723.761077713454
 30
0.0
 11
-15314.99261699535
 21
2623.757822085987
 31
0.0
  0
LINE
  5
3BC
  8
__
  6
CONTINUOUS
 62
     7
 10
-15314.99261699535
 20
2623.757822085987
 30
0.0
 11
-15914.99054967696
 21
2623.757822085987
 31
0.0
  0
LINE
  5
3BD
  8
__
  6
CONTINUOUS
 62
     7
 10
-15914.99054967696
 20
2623.757822085987
 30
0.0
 11
-15914.99054967696
 21
8628.111266177613
 31
0.0
  0
LINE
  5
3BE
  8
__
  6
CONTINUOUS
 62
     7
 10
-15914.99054967696
 20
8628.111266177613
 30
0.0
 11
-15314.99261699535
 21
8628.111266177613
 31
0.0
  0
LINE
  5
3BF
  8
__
  6
CONTINUOUS
 62
     7
 10
-15314.99261699535
 20
8628.111266177613
 30
0.0
 11
-15314.99261699535
 21
9528.108010550146
 31
0.0
  0
LINE
  5
3C0
  8
__
  6
CONTINUOUS
 62
     7
 10
-15314.99261699535
 20
9528.108010550146
 30
0.0
 11
-15914.99054967696
 21
9528.108010550146
 31
0.0
  0
LINE
  5
3C1
  8
__
  6
CONTINUOUS
 62
     7
 10
-15914.99054967696
 20
9528.108010550146
 30
0.0
 11
-15914.99054967696
 21
14128.13659717538
 31
0.0
  0
LINE
  5
3C2
  8
__
  6
CONTINUOUS
 62
     7
 10
-15914.99054967696
 20
14128.13659717538
 30
0.0
 11
-15314.99261699535
 21
14128.13659717538
 31
0.0
  0
LINE
  5
3C3
  8
__
  6
CONTINUOUS
 62
     7
 10
-15314.99261699535
 20
14128.13659717538
 30
0.0
 11
-15314.99261699535
 21
14394.06263746275
 31
0.0
  0
LINE
  5
3C4
  8
__
  6
CONTINUOUS
 62
     7
 10
-15314.99261699535
 20
14394.06263746275
 30
0.0
 11
-12254.9904480988
 21
14394.06263746275
 31
0.0
  0
LINE
  5
3C5
  8
__
  6
CONTINUOUS
 62
     7
 10
-12254.9904480988
 20
14394.06263746275
 30
0.0
 11
-12254.9904480988
 21
14699.81658987957
 31
0.0
  0
LINE
  5
3C6
  8
__
  6
CONTINUOUS
 62
     7
 10
-12254.9904480988
 20
14699.81658987957
 30
0.0
 11
-15314.99261699535
 21
14699.81658987957
 31
0.0
  0
LINE
  5
3C7
  8
__
  6
CONTINUOUS
 62
     7
 10
13014.99149327422
 20
-826.2639271827065
 30
0.0
 11
13014.99149327422
 21
-421.8445869548596
 31
0.0
  0
LINE
  5
3C8
  8
__
  6
CONTINUOUS
 62
     7
 10
13014.99149327422
 20
-421.8445869548596
 30
0.0
 11
12114.99351170263
 21
-421.8445869548596
 31
0.0
  0
LINE
  5
3C9
  8
__
  6
CONTINUOUS
 62
     7
 10
12114.99351170263
 20
-421.8445869548596
 30
0.0
 11
12114.99351170263
 21
-4471.863959605398
 31
0.0
  0
LINE
  5
3CA
  8
__
  6
CONTINUOUS
 62
     7
 10
12114.99351170263
 20
-4471.863959605398
 30
0.0
 11
12414.99201409379
 21
-4471.863959605398
 31
0.0
  0
LINE
  5
3CB
  8
__
  6
CONTINUOUS
 62
     7
 10
12414.99201409379
 20
-4471.863959605398
 30
0.0
 11
12414.99201409379
 21
-1321.841331327392
 31
0.0
  0
LINE
  5
3CC
  8
__
  6
CONTINUOUS
 62
     7
 10
12414.99201409379
 20
-1321.841331327392
 30
0.0
 11
13014.99149327422
 21
-1321.841331327392
 31
0.0
  0
LINE
  5
3CD
  8
__
  6
CONTINUOUS
 62
     7
 10
13014.99149327422
 20
-1321.841331327392
 30
0.0
 11
13014.99149327422
 21
-1126.263048173394
 31
0.0
  0
LINE
  5
3CE
  8
__
  6
CONTINUOUS
 62
     7
 10
13014.99149327422
 20
-1126.263048173394
 30
0.0
 11
16169.45814057463
 21
-1126.263048173394
 31
0.0
  0
LINE
  5
3CF
  8
__
  6
CONTINUOUS
 62
     7
 10
16169.45814057463
 20
-1126.263048173394
 30
0.0
 11
16169.45814057463
 21
-826.2639271827065
 31
0.0
  0
LINE
  5
3D0
  8
__
  6
CONTINUOUS
 62
     7
 10
16169.45814057463
 20
-826.2639271827065
 30
0.0
 11
13014.99149327422
 21
-826.2639271827065
 31
0.0
  0
LINE
  5
3D1
  8
__
  6
CONTINUOUS
 62
     7
 10
13014.99149327422
 20
-826.2639271827065
 30
0.0
 11
13014.99149327422
 21
-421.8445869548596
 31
0.0
  0
LINE
  5
3D2
  8
__
  6
CONTINUOUS
 62
     7
 10
13014.99149327422
 20
-421.8445869548596
 30
0.0
 11
12114.99351170263
 21
-421.8445869548596
 31
0.0
  0
LINE
  5
3D3
  8
__
  6
CONTINUOUS
 62
     7
 10
12114.99351170263
 20
-421.8445869548596
 30
0.0
 11
12114.99351170263
 21
-4471.863959605398
 31
0.0
  0
LINE
  5
3D4
  8
__
  6
CONTINUOUS
 62
     7
 10
12114.99351170263
 20
-4471.863959605398
 30
0.0
 11
12414.99201409379
 21
-4471.863959605398
 31
0.0
  0
LINE
  5
3D5
  8
__
  6
CONTINUOUS
 62
     7
 10
12414.99201409379
 20
-4471.863959605398
 30
0.0
 11
12414.99201409379
 21
-1321.841331327392
 31
0.0
  0
LINE
  5
3D6
  8
__
  6
CONTINUOUS
 62
     7
 10
12414.99201409379
 20
-1321.841331327392
 30
0.0
 11
13014.99149327422
 21
-1321.841331327392
 31
0.0
  0
LINE
  5
3D7
  8
__
  6
CONTINUOUS
 62
     7
 10
13014.99149327422
 20
-1321.841331327392
 30
0.0
 11
13014.99149327422
 21
-1126.263048173394
 31
0.0
  0
LINE
  5
3D8
  8
__
  6
CONTINUOUS
 62
     7
 10
13014.99149327422
 20
-1126.263048173394
 30
0.0
 11
16169.45814057463
 21
-1126.263048173394
 31
0.0
  0
LINE
  5
3D9
  8
__
  6
CONTINUOUS
 62
     7
 10
16169.45814057463
 20
-1126.263048173394
 30
0.0
 11
16169.45814057463
 21
-826.2639271827065
 31
0.0
  0
LINE
  5
3DA
  8
__
  6
CONTINUOUS
 62
     7
 10
16169.45814057463
 20
-826.2639271827065
 30
0.0
 11
13014.99149327422
 21
-826.2639271827065
 31
0.0
  0
LINE
  5
3DB
  8
__
  6
CONTINUOUS
 62
     7
 10
16165.0487631259
 20
14694.06361425202
 30
0.0
 11
13014.99149327422
 21
14694.06361425202
 31
0.0
  0
LINE
  5
3DC
  8
__
  6
CONTINUOUS
 62
     7
 10
13014.99149327422
 20
14694.06361425202
 30
0.0
 11
13014.99149327422
 21
15028.15189953381
 31
0.0
  0
LINE
  5
3DD
  8
__
  6
CONTINUOUS
 62
     7
 10
13014.99149327422
 20
15028.15189953381
 30
0.0
 11
12114.99351170263
 21
15028.15189953381
 31
0.0
  0
LINE
  5
3DE
  8
__
  6
CONTINUOUS
 62
     7
 10
12114.99351170263
 20
15028.15189953381
 30
0.0
 11
12114.99351170263
 21
14128.15391796222
 31
0.0
  0
LINE
  5
3DF
  8
__
  6
CONTINUOUS
 62
     7
 10
12114.99351170263
 20
14128.15391796222
 30
0.0
 11
13014.99149327422
 21
14128.15391796222
 31
0.0
  0
LINE
  5
3E0
  8
__
  6
CONTINUOUS
 62
     7
 10
13014.99149327422
 20
14128.15391796222
 30
0.0
 11
13014.99149327422
 21
14394.06263746275
 31
0.0
  0
LINE
  5
3E1
  8
__
  6
CONTINUOUS
 62
     7
 10
13014.99149327422
 20
14394.06263746275
 30
0.0
 11
16165.0487631259
 21
14394.06263746275
 31
0.0
  0
LINE
  5
3E2
  8
__
  6
CONTINUOUS
 62
     7
 10
16165.0487631259
 20
14394.06263746275
 30
0.0
 11
16165.0487631259
 21
14694.06361425202
 31
0.0
  0
LINE
  5
3E3
  8
__
  6
CONTINUOUS
 62
     7
 10
16165.0487631259
 20
14694.06361425202
 30
0.0
 11
13014.99149327422
 21
14694.06361425202
 31
0.0
  0
LINE
  5
3E4
  8
__
  6
CONTINUOUS
 62
     7
 10
13014.99149327422
 20
14694.06361425202
 30
0.0
 11
13014.99149327422
 21
15028.15189953381
 31
0.0
  0
LINE
  5
3E5
  8
__
  6
CONTINUOUS
 62
     7
 10
13014.99149327422
 20
15028.15189953381
 30
0.0
 11
12114.99351170263
 21
15028.15189953381
 31
0.0
  0
LINE
  5
3E6
  8
__
  6
CONTINUOUS
 62
     7
 10
12114.99351170263
 20
15028.15189953381
 30
0.0
 11
12114.99351170263
 21
14128.15391796222
 31
0.0
  0
LINE
  5
3E7
  8
__
  6
CONTINUOUS
 62
     7
 10
12114.99351170263
 20
14128.15391796222
 30
0.0
 11
13014.99149327422
 21
14128.15391796222
 31
0.0
  0
LINE
  5
3E8
  8
__
  6
CONTINUOUS
 62
     7
 10
13014.99149327422
 20
14128.15391796222
 30
0.0
 11
13014.99149327422
 21
14394.06263746275
 31
0.0
  0
LINE
  5
3E9
  8
__
  6
CONTINUOUS
 62
     7
 10
13014.99149327422
 20
14394.06263746275
 30
0.0
 11
16165.0487631259
 21
14394.06263746275
 31
0.0
  0
LINE
  5
3EA
  8
__
  6
CONTINUOUS
 62
     7
 10
16165.0487631259
 20
14394.06263746275
 30
0.0
 11
16165.0487631259
 21
14694.06361425202
 31
0.0
  0
LINE
  5
3EB
  8
__
  6
______-1
 62
     4
 10
0.0
 20
-787.4456529151066
 30
0.0
 11
0.0
 21
14617.17655805952
 31
0.0
  0
LINE
  5
3EC
  8
__
  6
______-1
 62
     4
 10
1799.993488745065
 20
0.0
 30
0.0
 11
1799.993488745065
 21
14099.98281194398
 31
0.0
  0
LINE
  5
3ED
  8
__
  6
______-1
 62
     4
 10
3600.021619063802
 20
0.0
 30
0.0
 11
3600.021619063802
 21
14099.98281194398
 31
0.0
  0
LINE
  5
3EE
  8
__
  6
______-1
 62
     4
 10
5400.015107808867
 20
0.0
 30
0.0
 11
5400.015107808867
 21
14099.98281194398
 31
0.0
  0
LINE
  5
3EF
  8
__
  6
______-1
 62
     4
 10
7200.008596553933
 20
0.0
 30
0.0
 11
7200.008596553933
 21
14099.98281194398
 31
0.0
  0
LINE
  5
3F0
  8
__
  6
______-1
 62
     4
 10
9000.002085298998
 20
0.0
 30
0.0
 11
9000.002085298998
 21
14099.98281194398
 31
0.0
  0
LINE
  5
3F1
  8
__
  6
______-1
 62
     4
 10
-9000.002085298998
 20
0.0
 30
0.0
 11
-9000.002085298998
 21
14099.98281194398
 31
0.0
  0
LINE
  5
3F2
  8
__
  6
______-1
 62
     4
 10
-7199.973954980262
 20
0.0
 30
0.0
 11
-7199.973954980262
 21
14099.98281194398
 31
0.0
  0
LINE
  5
3F3
  8
__
  6
______-1
 62
     4
 10
-5399.980466235196
 20
0.0
 30
0.0
 11
-5399.980466235196
 21
14099.98281194398
 31
0.0
  0
LINE
  5
3F4
  8
__
  6
______-1
 62
     4
 10
-3599.986977490131
 20
0.0
 30
0.0
 11
-3599.986977490131
 21
14099.98281194398
 31
0.0
  0
LINE
  5
3F5
  8
__
  6
______-1
 62
     4
 10
-1799.993488745065
 20
0.0
 30
0.0
 11
-1799.993488745065
 21
14099.98281194398
 31
0.0
  0
LINE
  5
3F6
  8
__
  6
______-1
 62
     4
 10
-9000.002085298998
 20
0.0
 30
0.0
 11
9000.002085298998
 21
0.0
 31
0.0
  0
LINE
  5
3F7
  8
__
  6
______-1
 62
     4
 10
-9000.002085298998
 20
1799.993488745065
 30
0.0
 11
9000.002085298998
 21
1799.993488745065
 31
0.0
  0
LINE
  5
3F8
  8
__
  6
______-1
 62
     4
 10
-9000.002085298998
 20
3599.986977490131
 30
0.0
 11
9000.002085298998
 21
3599.986977490131
 31
0.0
  0
LINE
  5
3F9
  8
__
  6
______-1
 62
     4
 10
-9000.002085298998
 20
5400.015107808867
 30
0.0
 11
9000.002085298998
 21
5400.015107808867
 31
0.0
  0
LINE
  5
3FA
  8
__
  6
______-1
 62
     4
 10
-9000.002085298998
 20
7200.008596553933
 30
0.0
 11
9000.002085298998
 21
7200.008596553933
 31
0.0
  0
LINE
  5
3FB
  8
__
  6
______-1
 62
     4
 10
-9000.002085298998
 20
9000.000848099939
 30
0.0
 11
9000.002085298998
 21
9000.000848099939
 31
0.0
  0
LINE
  5
3FC
  8
__
  6
______-1
 62
     4
 10
-9000.002085298998
 20
10799.994336845
 30
0.0
 11
9000.002085298998
 21
10799.994336845
 31
0.0
  0
LINE
  5
3FD
  8
__
  6
______-1
 62
     4
 10
-9000.002085298998
 20
12600.00514637691
 30
0.0
 11
9000.002085298998
 21
12600.00514637691
 31
0.0
  0
LINE
  5
3FE
  8
__
  6
CONTINUOUS
 62
     7
 10
10376.66697288863
 20
13306.34444256476
 30
0.0
 11
12316.94646301167
 21
13306.34444256476
 31
0.0
  0
LINE
  5
3FF
  8
__
  6
CONTINUOUS
 62
     7
 10
10376.66697288863
 20
13006.48203207017
 30
0.0
 11
12316.94646301167
 21
13006.48203207017
 31
0.0
  0
LINE
  5
400
  8
__
  6
CONTINUOUS
 62
     7
 10
10376.66697288863
 20
11401.34368362871
 30
0.0
 11
12316.94646301167
 21
11401.34368362871
 31
0.0
  0
LINE
  5
401
  8
__
  6
CONTINUOUS
 62
     7
 10
10376.66697288863
 20
10210.7189825431
 30
0.0
 11
12316.94646301167
 21
10210.7189825431
 31
0.0
  0
LINE
  5
402
  8
__
  6
CONTINUOUS
 62
     7
 10
10376.66697288863
 20
9408.14918972284
 30
0.0
 11
12316.94646301167
 21
9408.14918972284
 31
0.0
  0
LINE
  5
403
  8
__
  6
CONTINUOUS
 62
     7
 10
10376.66697288863
 20
8764.330594246392
 30
0.0
 11
12316.94646301167
 21
8764.330594246392
 31
0.0
  0
LINE
  5
404
  8
__
  6
CONTINUOUS
 62
     7
 10
10376.66697288863
 20
8279.260721715633
 30
0.0
 11
12316.94646301167
 21
8279.260721715633
 31
0.0
  0
LINE
  5
405
  8
__
  6
CONTINUOUS
 62
     7
 10
10376.66697288863
 20
7823.750009118929
 30
0.0
 11
12316.94646301167
 21
7823.750009118929
 31
0.0
  0
LINE
  5
406
  8
__
  6
CONTINUOUS
 62
     7
 10
10376.66697288863
 20
280.0252442007186
 30
0.0
 11
12316.94646301167
 21
280.0252442007186
 31
0.0
  0
LINE
  5
407
  8
__
  6
CONTINUOUS
 62
     7
 10
10376.66697288863
 20
12768.35832905211
 30
0.0
 11
12316.94646301167
 21
12768.35832905211
 31
0.0
  0
LINE
  5
408
  8
__
  6
CONTINUOUS
 62
     7
 10
10376.66697288863
 20
12521.41339673847
 30
0.0
 11
12316.94646301167
 21
12521.41339673847
 31
0.0
  0
LINE
  5
409
  8
__
  6
CONTINUOUS
 62
     7
 10
10376.66697288863
 20
12274.46846442483
 30
0.0
 11
12316.94646301167
 21
12274.46846442483
 31
0.0
  0
LINE
  5
40A
  8
__
  6
CONTINUOUS
 62
     7
 10
10376.66697288863
 20
12018.70477721374
 30
0.0
 11
12316.94646301167
 21
12018.70477721374
 31
0.0
  0
LINE
  5
40B
  8
__
  6
CONTINUOUS
 62
     7
 10
10376.66697288863
 20
10704.60760997131
 30
0.0
 11
12316.94646301167
 21
10704.60760997131
 31
0.0
  0
LINE
  5
40C
  8
__
  6
CONTINUOUS
 62
     7
 10
10376.66697288863
 20
10448.84392276022
 30
0.0
 11
12316.94646301167
 21
10448.84392276022
 31
0.0
  0
LINE
  5
40D
  8
__
  6
CONTINUOUS
 62
     7
 10
10376.66697288863
 20
9805.024090084713
 30
0.0
 11
12316.94646301167
 21
9805.024090084713
 31
0.0
  0
LINE
  5
40E
  8
__
  6
CONTINUOUS
 62
     7
 10
10376.66697288863
 20
7035.71854244906
 30
0.0
 11
12316.94646301167
 21
7035.71854244906
 31
0.0
  0
LINE
  5
40F
  8
__
  6
CONTINUOUS
 62
     7
 10
10376.66697288863
 20
6788.774847334484
 30
0.0
 11
12316.94646301167
 21
6788.774847334484
 31
0.0
  0
LINE
  5
410
  8
__
  6
CONTINUOUS
 62
     7
 10
10376.66697288863
 20
4583.914152301964
 30
0.0
 11
12316.94646301167
 21
4583.914152301964
 31
0.0
  0
LINE
  5
411
  8
__
  6
CONTINUOUS
 62
     7
 10
10376.66697288863
 20
4336.969219988328
 30
0.0
 11
12316.94646301167
 21
4336.969219988328
 31
0.0
  0
LINE
  5
412
  8
__
  6
CONTINUOUS
 62
     7
 10
10376.66697288863
 20
4090.024287674692
 30
0.0
 11
12316.94646301167
 21
4090.024287674692
 31
0.0
  0
LINE
  5
413
  8
__
  6
CONTINUOUS
 62
     7
 10
10376.66697288863
 20
3869.538094451535
 30
0.0
 11
12316.94646301167
 21
3869.538094451535
 31
0.0
  0
LINE
  5
414
  8
__
  6
CONTINUOUS
 62
     7
 10
10376.66697288863
 20
3613.774407240446
 30
0.0
 11
12316.94646301167
 21
3613.774407240446
 31
0.0
  0
LINE
  5
415
  8
__
  6
CONTINUOUS
 62
     7
 10
10385.48820218421
 20
1488.288692280301
 30
0.0
 11
12325.76521790912
 21
1488.288692280301
 31
0.0
  0
LINE
  5
416
  8
__
  6
CONTINUOUS
 62
     7
 10
10385.48820218421
 20
1250.163752063178
 30
0.0
 11
12325.76521790912
 21
1250.163752063178
 31
0.0
  0
LINE
  5
417
  8
__
  6
CONTINUOUS
 62
     7
 10
10385.48820218421
 20
1038.496932337002
 30
0.0
 11
12325.76521790912
 21
1038.496932337002
 31
0.0
  0
LINE
  5
418
  8
__
  6
CONTINUOUS
 62
     7
 10
12316.94646301167
 20
5509.95517407998
 30
0.0
 11
10359.02946309373
 21
5509.95517407998
 31
0.0
  0
LINE
  5
419
  8
__
  6
CONTINUOUS
 62
     7
 10
10359.02946309373
 20
5509.95517407998
 30
0.0
 11
10359.02946309373
 21
6118.496275568497
 31
0.0
  0
LINE
  5
41A
  8
__
  6
CONTINUOUS
 62
     7
 10
10359.02946309373
 20
6118.496275568497
 30
0.0
 11
12316.94646301167
 21
6118.496275568497
 31
0.0
  0
LINE
  5
41B
  8
__
  6
CONTINUOUS
 62
     7
 10
12316.94646301167
 20
6118.496275568497
 30
0.0
 11
12316.94646301167
 21
5509.95517407998
 31
0.0
  0
LINE
  5
41C
  8
__
  6
CONTINUOUS
 62
     7
 10
10359.02946309373
 20
5995.025046610739
 30
0.0
 11
12316.94646301167
 21
5995.025046610739
 31
0.0
  0
LINE
  5
41D
  8
__
  6
CONTINUOUS
 62
     7
 10
10359.02946309373
 20
5642.246395134251
 30
0.0
 11
12316.94646301167
 21
5642.246395134251
 31
0.0
  0
LINE
  5
41E
  8
__
  6
CONTINUOUS
 62
     7
 10
12316.94646301167
 20
2334.955971185002
 30
0.0
 11
10359.02946309373
 21
2334.955971185002
 31
0.0
  0
LINE
  5
41F
  8
__
  6
CONTINUOUS
 62
     7
 10
10359.02946309373
 20
2334.955971185002
 30
0.0
 11
10359.02946309373
 21
2943.497072673519
 31
0.0
  0
LINE
  5
420
  8
__
  6
CONTINUOUS
 62
     7
 10
10359.02946309373
 20
2943.497072673519
 30
0.0
 11
12316.94646301167
 21
2943.497072673519
 31
0.0
  0
LINE
  5
421
  8
__
  6
CONTINUOUS
 62
     7
 10
12316.94646301167
 20
2943.497072673519
 30
0.0
 11
12316.94646301167
 21
2334.955971185002
 31
0.0
  0
LINE
  5
422
  8
__
  6
CONTINUOUS
 62
     7
 10
10359.02946309373
 20
2820.024606516701
 30
0.0
 11
12316.94646301167
 21
2820.024606516701
 31
0.0
  0
LINE
  5
423
  8
__
  6
CONTINUOUS
 62
     7
 10
10359.02946309373
 20
2467.247192239272
 30
0.0
 11
12316.94646301167
 21
2467.247192239272
 31
0.0
  0
LINE
  5
424
  8
__
  6
CONTINUOUS
 62
     7
 10
-13269.15777749789
 20
3161.296069539036
 30
0.0
 11
-15209.15951643203
 21
3161.296069539036
 31
0.0
  0
LINE
  5
425
  8
__
  6
CONTINUOUS
 62
     7
 10
-15209.15951643203
 20
3161.296069539036
 30
0.0
 11
-15209.15951643203
 21
8301.32616694516
 31
0.0
  0
LINE
  5
426
  8
__
  6
CONTINUOUS
 62
     7
 10
-15209.15951643203
 20
8301.32616694516
 30
0.0
 11
-13269.15777749789
 21
8301.32616694516
 31
0.0
  0
LINE
  5
427
  8
__
  6
CONTINUOUS
 62
     7
 10
-13269.15777749789
 20
8301.32616694516
 30
0.0
 11
-13269.15777749789
 21
3161.296069539036
 31
0.0
  0
TEXT
  5
428
  8
__
 62
     7
 10
12534.19366909657
 20
4512.290224338532
 30
0.0
 40
153.515625
  1
８ バトン　電動
  0
TEXT
  5
429
  8
__
 62
     7
 10
12534.19366909657
 20
4266.827456498402
 30
0.0
 40
153.515625
  1
７ バトン
  0
TEXT
  5
42A
  8
__
 62
     7
 10
12572.3315673105
 20
4012.923279474024
 30
0.0
 40
153.515625
  1
虹梁(後)バトン　電動
  0
TEXT
  5
42B
  8
__
 62
     7
 10
12534.19366909657
 20
3791.989220191259
 30
0.0
 40
153.515625
  1
６ バトン
  0
TEXT
  5
42C
  8
__
 62
     7
 10
12534.19366909657
 20
3546.457169203786
 30
0.0
 40
153.515625
  1
５ バトン
  0
TEXT
  5
42D
  8
__
 62
     7
 10
12517.27868355252
 20
2733.655740159913
 30
0.0
 40
153.515625
  1
１ＳＵＳ
  0
TEXT
  5
42E
  8
__
 62
     7
 10
12517.27868355252
 20
2363.239578888519
 30
0.0
 40
153.515625
  1
１ＢＯＲ
  0
TEXT
  5
42F
  8
__
 62
     7
 10
13423.23501579557
 20
2543.141931356746
 30
0.0
 40
153.515625
  1
第１ブリッジ　電動
  0
TEXT
  5
430
  8
__
 62
     7
 10
12572.3315673105
 20
1868.627190010389
 30
0.0
 40
153.515625
  1
第１袖幕（間口 13m～22m）
  0
TEXT
  5
431
  8
__
 62
     7
 10
12572.3315673105
 20
1671.120113522338
 30
0.0
 40
153.515625
  1
第１一文字幕
  0
TEXT
  5
432
  8
__
 62
     7
 10
12534.19366909657
 20
1429.790827740624
 30
0.0
 40
153.515625
  1
３ バトン
  0
TEXT
  5
433
  8
__
 62
     7
 10
12572.3315673105
 20
1167.309149635432
 30
0.0
 40
153.515625
  1
虹梁(前)バトン　電動
  0
TEXT
  5
434
  8
__
 62
     7
 10
12534.19366909657
 20
942.930109570967
 30
0.0
 40
153.515625
  1
２ バトン
  0
TEXT
  5
435
  8
__
 62
     7
 10
12572.3315673105
 20
13246.98363168095
 30
0.0
 40
153.515625
  1
大ホリ幕　電動
  0
TEXT
  5
436
  8
__
 62
     7
 10
12572.32909291238
 20
12959.25072076754
 30
0.0
 40
153.515625
  1
大黒幕(ヒダ無し)
  0
TEXT
  5
437
  8
__
 62
     7
 10
12534.19366909657
 20
12701.05717460322
 30
0.0
 40
153.515625
  1
２０ バトン
  0
TEXT
  5
438
  8
__
 62
     7
 10
12517.27868355252
 20
12442.95023237308
 30
0.0
 40
153.515625
  1
１９ バトン　電動
  0
TEXT
  5
439
  8
__
 62
     7
 10
12517.27868355252
 20
12197.52210610663
 30
0.0
 40
153.515625
  1
１８ バトン
  0
TEXT
  5
43A
  8
__
 62
     7
 10
12517.27868355252
 20
11939.38175950188
 30
0.0
 40
153.515625
  1
１７ バトン
  0
TEXT
  5
43B
  8
__
 62
     7
 10
12572.3315673105
 20
11342.62250465876
 30
0.0
 40
153.515625
  1
大ＨＬ　電動
  0
TEXT
  5
43C
  8
__
 62
     7
 10
12572.3315673105
 20
10875.70852832892
 30
0.0
 40
153.515625
  1
第２袖幕（間口 13.2m～22m）
  0
TEXT
  5
43D
  8
__
 62
     7
 10
12517.27868355252
 20
10623.2172326307
 30
0.0
 40
153.515625
  1
１６ バトン
  0
TEXT
  5
43E
  8
__
 62
     7
 10
12517.27868355252
 20
10390.44936434203
 30
0.0
 40
153.515625
  1
１５ バトン
  0
TEXT
  5
43F
  8
__
 62
     7
 10
12559.61810977315
 20
10123.88492933987
 30
0.0
 40
153.515625
  1
中ホリ幕
  0
TEXT
  5
440
  8
__
 62
     7
 10
12517.27868355252
 20
9743.013198815053
 30
0.0
 40
153.515625
  1
１４ バトン　電動
  0
TEXT
  5
441
  8
__
 62
     7
 10
12576.56773689087
 20
9336.750431988272
 30
0.0
 40
153.515625
  1
松葉目(吊替え不可)
  0
TEXT
  5
442
  8
__
 62
     7
 10
12534.19366909657
 20
8685.69545921171
 30
0.0
 40
153.515625
  1
３ＳＵＳ　電動
  0
TEXT
  5
443
  8
__
 62
     7
 10
12559.61810977315
 20
8220.039714325569
 30
0.0
 40
153.515625
  1
中ＨＬ　電動
  0
TEXT
  5
444
  8
__
 62
     7
 10
12568.05828175833
 20
7758.604055432021
 30
0.0
 40
153.515625
  1
スクリーン　電動
  0
TEXT
  5
445
  8
__
 62
     7
 10
12572.32909291238
 20
7465.098373706103
 30
0.0
 40
153.515625
  1
第２中割幕（最大間口 18m）
  0
TEXT
  5
446
  8
__
 62
     7
 10
12572.3315673105
 20
7220.961883257958
 30
0.0
 40
153.515625
  1
第３一文字幕
  0
TEXT
  5
447
  8
__
 62
     7
 10
12517.27868355252
 20
6975.429832270485
 30
0.0
 40
153.515625
  1
１１ バトン　電動
  0
TEXT
  5
448
  8
__
 62
     7
 10
12517.27868355252
 20
6712.965474952129
 30
0.0
 40
153.515625
  1
１０ バトン
  0
TEXT
  5
449
  8
__
 62
     7
 10
12534.19366909657
 20
5900.216008268762
 30
0.0
 40
153.515625
  1
２ＳＵＳ
  0
TEXT
  5
44A
  8
__
 62
     7
 10
12534.19366909657
 20
5529.798609798308
 30
0.0
 40
153.515625
  1
２ＢＯＲ
  0
TEXT
  5
44B
  8
__
 62
     7
 10
13423.23501579557
 20
5709.667557891924
 30
0.0
 40
153.515625
  1
第２ブリッジ　電動
  0
TEXT
  5
44C
  8
__
 62
     7
 10
12572.32909291238
 20
5022.921866641496
 30
0.0
 40
153.515625
  1
第１中割幕（最大間口 18m）
  0
TEXT
  5
44D
  8
__
 62
     7
 10
12572.3315673105
 20
4766.227805737522
 30
0.0
 40
153.515625
  1
第２一文字幕
  0
TEXT
  5
44E
  8
__
 62
     7
 10
12576.56773689087
 20
180.978799079312
 30
0.0
 40
153.515625
  1
緞帳　電動
  0
TEXT
  5
44F
  8
__
 62
     7
 10
12568.05828175833
 20
409.5259627758642
 30
0.0
 40
153.515625
  1
一文字幕　電動
  0
TEXT
  5
450
  8
__
 62
     7
 10
12559.61810977315
 20
697.3980585834943
 30
0.0
 40
153.515625
  1
中割暗転幕（最大間口 19m）
  0
TEXT
  5
451
  8
__
 62
     7
 10
-14874.17549903103
 20
7463.909425409744
 30
0.0
 40
230.2734375
  1
搬入迫
  0
TEXT
  5
452
  8
__
 62
     7
 10
-14146.51996507344
 20
6813.268914318178
 30
0.0
 40
230.2734375
  1
1,940mm×5,140mm
 50
270.0
  0
TEXT
  5
453
  8
__
 62
     7
 10
-14612.19364934595
 20
6425.214006052818
 30
0.0
 40
230.2734375
  1
揚力 2,000㎏
 50
270.0
  0
INSERT
  5
454
  8
__
 62
     7
  2
BATT_INSULATION
 10
12318.47046301167
 20
7527.999130544649
 30
0.0
 50
180.0
  0
INSERT
  5
455
  8
__
 62
     7
  2
BATT_INSULATION-1
 10
12318.47046301167
 20
7292.199883257958
 30
0.0
 50
180.0
  0
INSERT
  5
456
  8
__
 62
     7
  2
BATT_INSULATION-2
 10
12318.47046301167
 20
10946.94652832892
 30
0.0
 50
180.0
  0
INSERT
  5
457
  8
__
 62
     7
  2
BATT_INSULATION-3
 10
12318.47046301167
 20
5094.159866641497
 30
0.0
 50
180.0
  0
INSERT
  5
458
  8
__
 62
     7
  2
BATT_INSULATION-4
 10
12318.47046301167
 20
4837.465805737523
 30
0.0
 50
180.0
  0
INSERT
  5
459
  8
__
 62
     7
  2
BATT_INSULATION-5
 10
12318.47046301167
 20
1946.396959470209
 30
0.0
 50
180.0
  0
INSERT
  5
45A
  8
__
 62
     7
  2
BATT_INSULATION-6
 10
12327.28921790912
 20
1742.358113522338
 30
0.0
 50
180.0
  0
INSERT
  5
45B
  8
__
 62
     7
  2
BATT_INSULATION-7
 10
12327.28921790912
 20
758.1714801258377
 30
0.0
 50
180.0
  0
INSERT
  5
45C
  8
__
 62
     7
  2
BATT_INSULATION-8
 10
12327.28921790912
 20
468.1714801258377
 30
0.0
 50
180.0
  0
LINE
  5
45D
  8
__
  6
CONTINUOUS
 62
     7
 10
-16011.86663834791
 20
16181.48370936327
 30
0.0
 11
-11011.89675349137
 21
16181.48370936327
 31
0.0
  0
LINE
  5
45E
  8
__
  6
CONTINUOUS
 62
     7
 10
-16011.86663834791
 20
16381.4695141674
 30
0.0
 11
-16011.86663834791
 21
15981.42614701367
 31
0.0
  0
LINE
  5
45F
  8
__
  6
CONTINUOUS
 62
     7
 10
-15011.89369376062
 20
16381.4695141674
 30
0.0
 11
-15011.89369376062
 21
16181.48370936327
 31
0.0
  0
LINE
  5
460
  8
__
  6
CONTINUOUS
 62
     7
 10
-14011.9201305738
 20
16381.4695141674
 30
0.0
 11
-14011.9201305738
 21
16181.48370936327
 31
0.0
  0
LINE
  5
461
  8
__
  6
CONTINUOUS
 62
     7
 10
-13011.87790283916
 20
16381.4695141674
 30
0.0
 11
-13011.87790283916
 21
16181.48370936327
 31
0.0
  0
LINE
  5
462
  8
__
  6
CONTINUOUS
 62
     7
 10
-12011.90433965233
 20
16381.4695141674
 30
0.0
 11
-12011.90433965233
 21
16181.48370936327
 31
0.0
  0
LINE
  5
463
  8
__
  6
CONTINUOUS
 62
     7
 10
-11011.89675349137
 20
16381.4695141674
 30
0.0
 11
-11011.89675349137
 21
16181.48370936327
 31
0.0
  0
LINE
  5
464
  8
__
  6
CONTINUOUS
 62
     7
 10
-14211.94243275019
 20
16181.48370936327
 30
0.0
 11
-14211.94243275019
 21
15981.42614701367
 31
0.0
  0
LINE
  5
465
  8
__
  6
CONTINUOUS
 62
     7
 10
-12411.94894400513
 20
16181.48370936327
 30
0.0
 11
-12411.94894400513
 21
15981.42614701367
 31
0.0
  0
TEXT
  5
466
  8
__
 62
     7
 10
4487.215104423463
 20
16448.98362965276
 30
0.0
 40
230.2734375
  1
舞台間口　　　 18.00ｍ 
  7
_______
  0
TEXT
  5
467
  8
__
 62
     7
 10
4487.215104423463
 20
16036.48362965276
 30
0.0
 40
230.2734375
  1
舞台奥行　　　 14.57ｍ 
  7
_______
  0
TEXT
  5
468
  8
__
 62
     7
 10
4487.215104423463
 20
15623.98362965276
 30
0.0
 40
230.2734375
  1
プロセミアム高　6.50ｍ 
  7
_______
  0
TEXT
  5
469
  8
__
 62
     7
 10
4487.215104423463
 20
15211.48362965276
 30
0.0
 40
230.2734375
  1
舞台框高　　　　0.99ｍ
  7
_______
  0
TEXT
  5
46A
  8
__
 62
     7
 10
-10877.46888966102
 20
16109.85978139983
 30
0.0
 40
191.89453125
  1
ｍ
  0
TEXT
  5
46B
  8
__
 62
     7
 10
-16100.0439804302
 20
16464.11688575265
 30
0.0
 40
191.89453125
  1
0
  0
TEXT
  5
46C
  8
__
 62
     7
 10
-15102.56801284512
 20
16464.11688575265
 30
0.0
 40
191.89453125
  1
1
  0
TEXT
  5
46D
  8
__
 62
     7
 10
-14105.0756523725
 20
16464.11688575265
 30
0.0
 40
191.89453125
  1
2
  0
TEXT
  5
46E
  8
__
 62
     7
 10
-13107.58267330035
 20
16464.11688575265
 30
0.0
 40
191.89453125
  1
3
  0
TEXT
  5
46F
  8
__
 62
     7
 10
-12110.15835877601
 20
16464.11688575265
 30
0.0
 40
191.89453125
  1
4
  0
TEXT
  5
470
  8
__
 62
     7
 10
-11112.66537970386
 20
16464.11688575265
 30
0.0
 40
191.89453125
  1
5
  0
TEXT
  5
471
  8
__
 62
     7
 10
-14440.52423802041
 20
15651.28205233417
 30
0.0
 40
191.89453125
  1
1.8
  0
TEXT
  5
472
  8
__
 62
     7
 10
-12632.53844334977
 20
15651.28205233417
 30
0.0
 40
191.89453125
  1
3.6
  0
TEXT
  5
473
  8
__
 62
     7
 10
-5194.998126628628
 20
17275.98560282658
 30
0.0
 40
307.03125
  1
アステールプラザ 中ホール(中区民文化センター ホール)
  0
TEXT
  5
474
  8
__
 62
     7
 10
-2194.997942251593
 20
16458.47343483521
 30
0.0
 40
307.03125
  1
舞台平面図【A3 1/100】
  7
_______
  0
TEXT
  5
475
  8
__
 62
     7
 10
14085.94958090619
 20
-5196.849927291943
 30
0.0
 40
243.7060546875
  1
(作成 2018.5.9)
  7
_______
 72
     2
 11
16462.08361410932
 21
-5196.849927291943
 31
0.0
  0
VIEWPORT
  5
476
 67
     1
  8
0
 10
128.5
 20
97.5
 30
0.0
 40
314.226
 41
222.18
 68
     1
 69
     1
1001
ACAD
1000
MVIEW
1002
{
1070
    16
1010
0.0
1020
0.0
1030
0.0
1010
0.0
1020
0.0
1030
1.0
1040
0.0
1040
222.18
1040
128.5
1040
97.5
1040
50.0
1040
0.0
1040
0.0
1070
     0
1070
   100
1070
     0
1070
     3
1070
     0
1070
     0
1070
     0
1070
     0
1040
0.0
1040
0.0
1040
0.0
1040
10.0
1040
10.0
1040
10.0
1040
10.0
1070
     0
1002
{
1002
}
1002
}
  0
ENDSEC
  0
EOF
